  0
SECTION
  2
HEADER
  9
$ACADVER
  1
AC1006
  9
$INSBASE
 10
0.0
 20
0.0
 30
0.0
  9
$EXTMIN
 10
     -144.365448
 20
     -144.365448
  9
$EXTMAX
 10
      178.500244
 20
      178.500244
  9
$LIMMIN
 10
     -144.365448
 20
     -144.365448
  9
$LIMMAX
 10
      178.500244
 20
      178.500244
  9
$VIEWCTR
 10
       17.067398
 20
       17.067398
  9
$ORTHOMODE
 70
     0
  9
$ANGBASE
 50
0.0
  9
$ANGDIR
 70
     0
  9
$SPLINETYPE
 70
     6
  9
$SPLINESEGS
 70
     8
9
$DIMASZ
 40
        6.000000
9
$DIMEXE
 40
        1.500000
9
$DIMEXO
 40
        2.500000
9
$DIMTXT
 40
        5.000000
9
$DIMGAP
 40
        1.500000
9
$DIMTAD
 70
1
9
$DIMTIH
 70
0
9
$DIMTOH
 70
0
  0
ENDSEC
  0
SECTION
  2
TABLES
  0
TABLE
  2
LTYPE
 70
     5
  0
LTYPE
  2
CONTINUOUS
 70
    64
  3
SOLID LINE
 72
    65
 73
     0
 40
0.0
  0
LTYPE
  2
DASHED
 70
    64
  3
-- -- -- -- -- --
 72
    65
 73
     2
 40
  0.75  
 49
  0.50  
 49
 -0.25  
  0
LTYPE
  2
DOT
 70
    64
  3
....................
 72
    65
 73
     2
 40
  0.25  
 49
  0.02  
 49
 -0.23  
  0
LTYPE
  2
CENTER
 70
    64
  3
-- . -- . -- . -- .
 72
    65
 73
    4
 40
  2.00  
 49
  1.25  
 49
 -0.25  
 49
  0.25  
 49
 -0.25  
  0
LTYPE
  2
PHANTOM
 70
    64
  3
-- .. -- .. -- ..
 72
    65
 73
    6
 40
  2.50  
 49
  1.25  
 49
 -0.25  
 49
  0.25  
 49
 -0.25  
 49
  0.25  
 49
 -0.25  
  0
ENDTAB
  0
TABLE
  2
LAYER
 70
     1
  0
LAYER
  2
0
 70
    64
 62
     3
  6
CONTINUOUS
  0
ENDTAB
  0
TABLE
  2
STYLE
 70
     2
  0
STYLE
  2
STANDARD
 70
    64
 40
0.0
 41
1.0
 50
0.0
 71
     0
 42
5.0
  3
ROMANS
  4
BIGFONT
  0
STYLE
  2
BIGFONT
 70
    64
 40
0.0
 41
1.0
 50
0.0
 71
     0
 42
5.0
  3
ROMANS
  4
BIGFONT
  0
ENDTAB
  0
TABLE
  2
VIEW
 70
     0
  0
ENDTAB
  0
TABLE
  2
UCS
 70
     0
  0
ENDTAB
  0
TABLE
  2
DWGMGR
 70
     0
  0
ENDTAB
  0
ENDSEC
  0
SECTION
  2
BLOCKS
  0
BLOCK
  8
0
  2
BLK0001
 70
    64
 10
        0.000000
 20
        0.000000
  0
TEXT
  8
0
 62
  2
 10
       33.955940
 20
       -6.056659
 30
        0.000000
 40
        3.340000
  1
２５０
 50
       90.000000
 41
        1.000000
 51
        0.000000
  7
BIGFONT
  0
LINE
  8
0
 62
  2
 10
       18.750000
 20
      125.000000
 30
        0.000000
 11
       36.355942
 21
      125.000000
 31
        0.000000
  0
LINE
  8
0
 62
  2
 10
       18.750000
 20
     -125.000000
 30
        0.000000
 11
       36.355942
 21
     -125.000000
 31
        0.000000
  0
LINE
  8
0
 62
  2
 10
       35.941341
 20
      122.000000
 30
        0.000000
 11
       35.155941
 21
      125.000000
 31
        0.000000
  0
LINE
  8
0
 62
  2
 10
       35.155941
 20
      125.000000
 30
        0.000000
 11
       34.370541
 21
      122.000000
 31
        0.000000
  0
LINE
  8
0
 62
  2
 10
       34.370541
 20
     -122.000000
 30
        0.000000
 11
       35.155941
 21
     -125.000000
 31
        0.000000
  0
LINE
  8
0
 62
  2
 10
       35.155941
 20
     -125.000000
 30
        0.000000
 11
       35.941338
 21
     -122.000000
 31
        0.000000
  0
LINE
  8
0
 62
  2
 10
       35.155941
 20
      125.000000
 30
        0.000000
 11
       35.155941
 21
     -125.000000
 31
        0.000000
  0
ENDBLK
  0
BLOCK
  8
0
  2
BLK0002
 70
    64
 10
        0.000000
 20
        0.000000
  0
TEXT
  8
0
 62
  2
 10
       -7.522929
 20
     -141.965454
 30
        0.000000
 40
        3.340000
  1
３３．５
 50
        0.000000
 41
        1.000000
 51
        0.000000
  7
BIGFONT
  0
LINE
  8
0
 62
  2
 10
      -16.750000
 20
     -127.000000
 30
        0.000000
 11
      -16.750000
 21
     -144.365448
 31
        0.000000
  0
LINE
  8
0
 62
  2
 10
       16.750000
 20
     -127.000000
 30
        0.000000
 11
       16.750000
 21
     -144.365448
 31
        0.000000
  0
LINE
  8
0
 62
  2
 10
      -13.750000
 20
     -142.380051
 30
        0.000000
 11
      -16.750000
 21
     -143.165451
 31
        0.000000
  0
LINE
  8
0
 62
  2
 10
      -16.750000
 20
     -143.165451
 30
        0.000000
 11
      -13.750000
 21
     -143.950851
 31
        0.000000
  0
LINE
  8
0
 62
  2
 10
       13.750000
 20
     -143.950851
 30
        0.000000
 11
       16.750000
 21
     -143.165451
 31
        0.000000
  0
LINE
  8
0
 62
  2
 10
       16.750000
 20
     -143.165451
 30
        0.000000
 11
       13.750000
 21
     -142.380051
 31
        0.000000
  0
LINE
  8
0
 62
  2
 10
      -16.750000
 20
     -143.165451
 30
        0.000000
 11
       16.750000
 21
     -143.165451
 31
        0.000000
  0
ENDBLK
  0
BLOCK
  8
0
  2
BLK0003
 70
    64
 10
        0.000000
 20
        0.000000
  0
TEXT
  8
0
 62
  2
 10
      112.152573
 20
      132.079102
 30
        0.000000
 40
        3.340000
  1
１０５
 50
        0.000000
 41
        1.000000
 51
        0.000000
  7
BIGFONT
  0
LINE
  8
0
 62
  2
 10
      174.999954
 20
      125.500244
 30
        0.000000
 11
      174.999954
 21
      132.079102
 31
        0.000000
  0
LINE
  8
0
 62
  2
 10
       70.000000
 20
      124.611328
 30
        0.000000
 11
       70.000000
 21
      132.079102
 31
        0.000000
  0
LINE
  8
0
 62
  2
 10
      171.999954
 20
      130.093704
 30
        0.000000
 11
      174.999954
 21
      130.879105
 31
        0.000000
  0
LINE
  8
0
 62
  2
 10
      174.999954
 20
      130.879105
 30
        0.000000
 11
      171.999954
 21
      131.664505
 31
        0.000000
  0
LINE
  8
0
 62
  2
 10
       73.000000
 20
      131.664505
 30
        0.000000
 11
       70.000000
 21
      130.879105
 31
        0.000000
  0
LINE
  8
0
 62
  2
 10
       70.000000
 20
      130.879105
 30
        0.000000
 11
       73.000000
 21
      130.093704
 31
        0.000000
  0
LINE
  8
0
 62
  2
 10
      174.999954
 20
      130.879105
 30
        0.000000
 11
       70.000000
 21
      130.879105
 31
        0.000000
  0
ENDBLK
  0
ENDSEC
  0
SECTION
  2
ENTITIES
  0
LINE
  8
0
 10
       16.749778
 20
       55.550093
 30
        0.000000
 11
       -0.750222
 21
       55.550093
 31
        0.000000
  0
LINE
  8
0
 10
       16.749778
 20
       57.050093
 30
        0.000000
 11
       -0.750222
 21
       57.050093
 31
        0.000000
  0
LINE
  8
0
 10
      -16.749978
 20
      125.000005
 30
        0.000000
 11
      -16.749978
 21
     -124.999956
 31
        0.000000
  0
LINE
  8
0
 10
      -16.749978
 20
      125.000005
 30
        0.000000
 11
       16.750022
 21
      125.000005
 31
        0.000000
  0
LINE
  8
0
 10
       16.750022
 20
      125.000005
 30
        0.000000
 11
       16.750022
 21
     -124.999956
 31
        0.000000
  0
LINE
  8
0
 10
       86.500000
 20
       66.000549
 30
        0.000000
 11
       95.000000
 21
       66.000549
 31
        0.000000
  0
LINE
  8
0
 10
       86.500000
 20
       57.050598
 30
        0.000000
 11
       86.500000
 21
       66.000549
 31
        0.000000
  0
LINE
  8
0
 10
       95.000000
 20
       69.000122
 30
        0.000000
 11
       95.000000
 21
     -124.333954
 31
        0.000000
  0
LINE
  8
0
 10
      105.000000
 20
      125.000244
 30
        0.000000
 11
       70.491211
 21
      124.397827
 31
        0.000000
  0
LINE
  8
0
 10
       75.000000
 20
       75.000244
 30
        0.000000
 11
       75.000000
 21
      123.985107
 31
        0.000000
  0
ARC
  8
0
 10
       75.500000
 20
      123.985107
 30
        0.000000
 40
        0.500073
 50
       90.979070
 51
      180.000015
  0
LINE
  8
0
 10
       72.000000
 20
       75.000122
 30
        0.000000
 11
       72.000000
 21
       70.480469
 31
        0.000000
  0
LINE
  8
0
 10
       72.479980
 20
       69.980957
 30
        0.000000
 11
       95.000000
 21
       69.000122
 31
        0.000000
  0
ARC
  8
0
 10
       72.500000
 20
       70.480469
 30
        0.000000
 40
        0.500000
 50
      180.000015
 51
      267.705227
  0
LINE
  8
0
 10
       70.000000
 20
       75.000244
 30
        0.000000
 11
       70.000000
 21
      123.897888
 31
        0.000000
  0
ARC
  8
0
 10
       70.500000
 20
      123.897888
 30
        0.000000
 40
        0.500016
 50
       91.007163
 51
      180.000015
  0
LINE
  8
0
 10
       70.000000
 20
       75.000244
 30
        0.000000
 11
       75.000000
 21
       75.000244
 31
        0.000000
  0
LINE
  8
0
 10
       86.500000
 20
     -123.999451
 30
        0.000000
 11
       86.500000
 21
     -115.049500
 31
        0.000000
  0
LINE
  8
0
 10
       86.500000
 20
     -123.999451
 30
        0.000000
 11
       95.000000
 21
     -123.999451
 31
        0.000000
  0
LINE
  8
0
 10
      105.000000
 20
     -124.999756
 30
        0.000000
 11
       95.491211
 21
     -124.833893
 31
        0.000000
  0
ARC
  8
0
 10
       95.500000
 20
     -124.333954
 30
        0.000000
 40
        0.500000
 50
      180.000015
 51
      268.992799
  0
LINE
  8
0
 10
       70.300049
 20
     -115.049500
 30
        0.000000
 11
       86.500000
 21
     -115.049500
 31
        0.000000
  0
LINE
  8
0
 10
       70.300049
 20
     -115.049500
 30
        0.000000
 11
       70.300049
 21
       57.050598
 31
        0.000000
  0
LINE
  8
0
 10
       70.300049
 20
       57.050598
 30
        0.000000
 11
       86.500000
 21
       57.050598
 31
        0.000000
  0
TEXT
  8
0
 62
  2
 10
      -11.779520
 20
      169.432386
 30
        0.000000
 40
        4.175000
  1
ＪＷ８ＡＤ
 50
        0.000000
 41
        1.000000
 51
        0.000000
  7
BIGFONT
  0
CIRCLE
  8
0
 10
        4.550022
 20
       95.600005
 30
        0.000000
 40
        2.150000
  0
CIRCLE
  8
0
 10
        4.550022
 20
      101.600005
 30
        0.000000
 40
        2.150000
  0
CIRCLE
  8
0
 10
        5.750022
 20
      110.500005
 30
        0.000000
 40
        1.000000
  0
INSERT
  8
0
 62
  5
  2
BLK0001
 10
        0.000000
 20
        0.000000
  0
INSERT
  8
0
 62
  5
  2
BLK0002
 10
        0.000000
 20
        0.000000
  0
INSERT
  8
0
 62
  5
  2
BLK0003
 10
        0.000000
 20
        0.000000
  0
LINE
  8
0
  6
CENTER
 10
       30.000000
 20
        0.000000
 30
        0.000000
 11
      -30.000000
 21
        0.000000
 31
        0.000000
  0
LINE
  8
0
  6
CENTER
 10
        0.000000
 20
      135.705527
 30
        0.000000
 11
        0.000000
 21
     -135.069355
 31
        0.000000
  0
LINE
  8
0
 10
      162.000200
 20
     -125.000000
 30
        0.000000
 11
      105.000000
 21
     -125.000000
 31
        0.000000
  0
LINE
  8
0
 10
      174.999956
 20
     -123.500000
 30
        0.000000
 11
      162.000200
 21
     -123.500000
 31
        0.000000
  0
LINE
  8
0
 10
      165.000200
 20
     -123.500000
 30
        0.000000
 11
      165.000200
 21
     -125.000000
 31
        0.000000
  0
LINE
  8
0
 10
      172.499956
 20
     -125.000000
 30
        0.000000
 11
      165.000200
 21
     -125.000000
 31
        0.000000
  0
LINE
  8
0
 10
      174.999956
 20
       -5.500000
 30
        0.000000
 11
      174.999956
 21
     -123.500000
 31
        0.000000
  0
LINE
  8
0
 10
      162.000200
 20
      125.000244
 30
        0.000000
 11
      105.000000
 21
      125.000244
 31
        0.000000
  0
LINE
  8
0
 10
      174.999956
 20
      123.500244
 30
        0.000000
 11
      174.999956
 21
       81.500244
 31
        0.000000
  0
LINE
  8
0
 10
      174.999956
 20
       81.500244
 30
        0.000000
 11
      172.499956
 21
       81.500244
 31
        0.000000
  0
LINE
  8
0
 10
      165.000200
 20
      125.000244
 30
        0.000000
 11
      165.000200
 21
      123.500244
 31
        0.000000
  0
LINE
  8
0
 10
      114.499268
 20
       12.500000
 30
        0.000000
 11
      164.499268
 21
       12.500000
 31
        0.000000
  0
LINE
  8
0
 10
      111.000000
 20
      -56.500000
 30
        0.000000
 11
      108.000000
 21
      -56.500000
 31
        0.000000
  0
LINE
  8
0
 10
      108.000000
 20
       56.500244
 30
        0.000000
 11
      108.000000
 21
       43.500244
 31
        0.000000
  0
LINE
  8
0
 10
      104.999956
 20
      145.000244
 30
        0.000000
 11
      104.999956
 21
      178.500244
 31
        0.000000
  0
LINE
  8
0
 10
      174.999956
 20
      145.000244
 30
        0.000000
 11
      174.999956
 21
      178.500244
 31
        0.000000
  0
LINE
  8
0
 10
       69.999956
 20
      145.611171
 30
        0.000000
 11
       69.999956
 21
      177.889317
 31
        0.000000
  0
LINE
  8
0
 10
       75.000001
 20
      145.523895
 30
        0.000000
 11
       75.000001
 21
      177.976593
 31
        0.000000
  0
LINE
  8
0
 10
      107.999712
 20
      145.000244
 30
        0.000000
 11
      107.999712
 21
      178.500244
 31
        0.000000
  0
LINE
  8
0
 10
      110.999712
 20
      145.000244
 30
        0.000000
 11
      110.999712
 21
      178.500244
 31
        0.000000
  0
LINE
  8
0
 10
      113.999712
 20
      145.000244
 30
        0.000000
 11
      113.999712
 21
      178.500244
 31
        0.000000
  0
LINE
  8
0
 10
      116.999956
 20
      145.000244
 30
        0.000000
 11
      116.999956
 21
      178.500244
 31
        0.000000
  0
LINE
  8
0
 10
      119.999956
 20
      145.000244
 30
        0.000000
 11
      119.999956
 21
      178.500244
 31
        0.000000
  0
LINE
  8
0
 10
      122.999956
 20
      145.000244
 30
        0.000000
 11
      122.999956
 21
      178.500244
 31
        0.000000
  0
LINE
  8
0
 10
      125.999956
 20
      145.000244
 30
        0.000000
 11
      125.999956
 21
      178.500244
 31
        0.000000
  0
LINE
  8
0
 10
      128.999956
 20
      145.000244
 30
        0.000000
 11
      128.999956
 21
      178.500244
 31
        0.000000
  0
LINE
  8
0
 10
      131.999956
 20
      145.000244
 30
        0.000000
 11
      131.999956
 21
      178.500244
 31
        0.000000
  0
LINE
  8
0
 10
      134.999956
 20
      145.000244
 30
        0.000000
 11
      134.999956
 21
      178.500244
 31
        0.000000
  0
LINE
  8
0
 10
      137.999956
 20
      145.000244
 30
        0.000000
 11
      137.999956
 21
      178.500244
 31
        0.000000
  0
LINE
  8
0
 10
      140.999956
 20
      145.000244
 30
        0.000000
 11
      140.999956
 21
      178.500244
 31
        0.000000
  0
LINE
  8
0
 10
      143.999956
 20
      145.000244
 30
        0.000000
 11
      143.999956
 21
      178.500244
 31
        0.000000
  0
LINE
  8
0
 10
      149.999956
 20
      145.000244
 30
        0.000000
 11
      149.999956
 21
      178.500244
 31
        0.000000
  0
LINE
  8
0
 10
      152.999956
 20
      145.000244
 30
        0.000000
 11
      152.999956
 21
      178.500244
 31
        0.000000
  0
LINE
  8
0
 10
      155.999956
 20
      145.000244
 30
        0.000000
 11
      155.999956
 21
      178.500244
 31
        0.000000
  0
LINE
  8
0
 10
      161.999956
 20
      145.000244
 30
        0.000000
 11
      161.999956
 21
      178.500244
 31
        0.000000
  0
LINE
  8
0
 10
      172.499956
 20
      158.000244
 30
        0.000000
 11
      164.999956
 21
      158.000244
 31
        0.000000
  0
LINE
  8
0
 10
      174.999956
 20
      145.000244
 30
        0.000000
 11
      104.999956
 21
      145.000244
 31
        0.000000
  0
LINE
  8
0
 10
      174.999956
 20
      178.500244
 30
        0.000000
 11
      104.999956
 21
      178.500244
 31
        0.000000
  0
LINE
  8
0
 10
      164.999956
 20
      145.000244
 30
        0.000000
 11
      164.999956
 21
      178.500244
 31
        0.000000
  0
LINE
  8
0
 10
      172.499956
 20
      158.000244
 30
        0.000000
 11
      172.499956
 21
      165.500244
 31
        0.000000
  0
LINE
  8
0
 10
      158.999956
 20
      145.000244
 30
        0.000000
 11
      158.999956
 21
      178.500244
 31
        0.000000
  0
LINE
  8
0
 10
      146.999956
 20
      145.000244
 30
        0.000000
 11
      146.999956
 21
      178.500244
 31
        0.000000
  0
LINE
  8
0
 10
      104.999956
 20
      178.500244
 30
        0.000000
 11
       69.999956
 21
      177.889317
 31
        0.000000
  0
LINE
  8
0
 10
      104.999956
 20
      145.000244
 30
        0.000000
 11
       69.999956
 21
      145.611171
 31
        0.000000
  0
LINE
  8
0
 10
      111.000000
 20
       56.500244
 30
        0.000000
 11
      111.000000
 21
       43.500244
 31
        0.000000
  0
LINE
  8
0
 10
      111.000000
 20
       56.500244
 30
        0.000000
 11
      108.000000
 21
       56.500244
 31
        0.000000
  0
LINE
  8
0
 10
      111.000000
 20
       43.500244
 30
        0.000000
 11
      108.000000
 21
       43.500244
 31
        0.000000
  0
LINE
  8
0
 10
      111.000000
 20
      -43.500000
 30
        0.000000
 11
      108.000000
 21
      -43.500000
 31
        0.000000
  0
LINE
  8
0
 10
      108.000000
 20
      -43.500000
 30
        0.000000
 11
      108.000000
 21
      -56.500000
 31
        0.000000
  0
LINE
  8
0
 10
      111.000000
 20
      -43.500000
 30
        0.000000
 11
      111.000000
 21
      -56.500000
 31
        0.000000
  0
LINE
  8
0
 10
      105.000000
 20
      125.000244
 30
        0.000000
 11
      105.000000
 21
     -125.000000
 31
        0.000000
  0
LINE
  8
0
 10
      164.499268
 20
       12.500000
 30
        0.000000
 11
      164.499268
 21
      -12.500000
 31
        0.000000
  0
LINE
  8
0
 10
      164.499268
 20
      -12.500000
 30
        0.000000
 11
      114.499268
 21
      -12.500000
 31
        0.000000
  0
LINE
  8
0
 10
      114.499268
 20
      -12.500000
 30
        0.000000
 11
      114.499268
 21
       12.500000
 31
        0.000000
  0
LINE
  8
0
 10
      162.000200
 20
      123.500244
 30
        0.000000
 11
      162.000200
 21
      125.000244
 31
        0.000000
  0
LINE
  8
0
 10
      172.499956
 20
      125.000244
 30
        0.000000
 11
      172.499956
 21
      123.500244
 31
        0.000000
  0
LINE
  8
0
 10
      174.999956
 20
      123.500244
 30
        0.000000
 11
      162.000200
 21
      123.500244
 31
        0.000000
  0
LINE
  8
0
 10
      172.499956
 20
       81.500244
 30
        0.000000
 11
      172.499956
 21
       -5.500000
 31
        0.000000
  0
LINE
  8
0
 10
      172.499956
 20
      125.000244
 30
        0.000000
 11
      165.000200
 21
      125.000244
 31
        0.000000
  0
LINE
  8
0
 10
      172.499956
 20
       -5.500000
 30
        0.000000
 11
      174.999956
 21
       -5.500000
 31
        0.000000
  0
LINE
  8
0
 10
      162.000200
 20
     -123.500000
 30
        0.000000
 11
      162.000200
 21
     -125.000000
 31
        0.000000
  0
LINE
  8
0
 10
      172.499956
 20
     -123.500000
 30
        0.000000
 11
      172.499956
 21
     -125.000000
 31
        0.000000
  0
LINE
  8
0
 10
      172.499956
 20
      165.500244
 30
        0.000000
 11
      164.999956
 21
      165.500244
 31
        0.000000
  0
LINE
  8
0
 10
       16.749778
 20
     -113.550005
 30
        0.000000
 11
       -0.750222
 21
     -113.550005
 31
        0.000000
  0
LINE
  8
0
 10
       16.749778
 20
     -115.050005
 30
        0.000000
 11
       -0.750222
 21
     -115.050005
 31
        0.000000
  0
LINE
  8
0
 10
       16.749778
 20
     -123.999956
 30
        0.000000
 11
       -0.750222
 21
     -123.999956
 31
        0.000000
  0
LINE
  8
0
 10
        7.649680
 20
     -104.949907
 30
        0.000000
 11
       -0.750222
 21
     -104.949907
 31
        0.000000
  0
LINE
  8
0
 10
        7.649680
 20
     -112.149980
 30
        0.000000
 11
       -0.750222
 21
     -112.149980
 31
        0.000000
  0
LINE
  8
0
 10
       15.849876
 20
     -107.849931
 30
        0.000000
 11
        7.649680
 21
     -107.849931
 31
        0.000000
  0
LINE
  8
0
 10
       15.849876
 20
     -100.649980
 30
        0.000000
 11
        7.649680
 21
     -100.649980
 31
        0.000000
  0
LINE
  8
0
 10
       15.849876
 20
     -107.849931
 30
        0.000000
 11
       15.849876
 21
     -100.649980
 31
        0.000000
  0
LINE
  8
0
 10
        7.649680
 20
      -96.349931
 30
        0.000000
 11
       -0.750222
 21
      -96.349931
 31
        0.000000
  0
LINE
  8
0
 10
        7.649680
 20
     -103.550005
 30
        0.000000
 11
       -0.750222
 21
     -103.550005
 31
        0.000000
  0
LINE
  8
0
 10
       15.849876
 20
      -99.249956
 30
        0.000000
 11
        7.649680
 21
      -99.249956
 31
        0.000000
  0
LINE
  8
0
 10
       15.849876
 20
      -92.050005
 30
        0.000000
 11
        7.649680
 21
      -92.050005
 31
        0.000000
  0
LINE
  8
0
 10
       15.849876
 20
      -99.249956
 30
        0.000000
 11
       15.849876
 21
      -92.050005
 31
        0.000000
  0
LINE
  8
0
 10
        7.649680
 20
      -87.749956
 30
        0.000000
 11
       -0.750222
 21
      -87.749956
 31
        0.000000
  0
LINE
  8
0
 10
        7.649680
 20
      -94.949907
 30
        0.000000
 11
       -0.750222
 21
      -94.949907
 31
        0.000000
  0
LINE
  8
0
 10
       15.849876
 20
      -90.649980
 30
        0.000000
 11
        7.649680
 21
      -90.649980
 31
        0.000000
  0
LINE
  8
0
 10
       15.849876
 20
      -83.449907
 30
        0.000000
 11
        7.649680
 21
      -83.449907
 31
        0.000000
  0
LINE
  8
0
 10
       15.849876
 20
      -90.649980
 30
        0.000000
 11
       15.849876
 21
      -83.449907
 31
        0.000000
  0
LINE
  8
0
 10
        7.649680
 20
      -79.149980
 30
        0.000000
 11
       -0.750222
 21
      -79.149980
 31
        0.000000
  0
LINE
  8
0
 10
        7.649680
 20
      -86.349931
 30
        0.000000
 11
       -0.750222
 21
      -86.349931
 31
        0.000000
  0
LINE
  8
0
 10
       15.849876
 20
      -82.050005
 30
        0.000000
 11
        7.649680
 21
      -82.050005
 31
        0.000000
  0
LINE
  8
0
 10
       15.849876
 20
      -74.849931
 30
        0.000000
 11
        7.649680
 21
      -74.849931
 31
        0.000000
  0
LINE
  8
0
 10
       15.849876
 20
      -82.050005
 30
        0.000000
 11
       15.849876
 21
      -74.849931
 31
        0.000000
  0
LINE
  8
0
 10
        7.649680
 20
      -70.549883
 30
        0.000000
 11
       -0.750222
 21
      -70.549883
 31
        0.000000
  0
LINE
  8
0
 10
        7.649680
 20
      -77.749956
 30
        0.000000
 11
       -0.750222
 21
      -77.749956
 31
        0.000000
  0
LINE
  8
0
 10
       15.849876
 20
      -73.449907
 30
        0.000000
 11
        7.649680
 21
      -73.449907
 31
        0.000000
  0
LINE
  8
0
 10
       15.849876
 20
      -66.249956
 30
        0.000000
 11
        7.649680
 21
      -66.249956
 31
        0.000000
  0
LINE
  8
0
 10
       15.849876
 20
      -73.449907
 30
        0.000000
 11
       15.849876
 21
      -66.249956
 31
        0.000000
  0
LINE
  8
0
 10
        7.649680
 20
      -61.949907
 30
        0.000000
 11
       -0.750222
 21
      -61.949907
 31
        0.000000
  0
LINE
  8
0
 10
        7.649680
 20
      -69.149980
 30
        0.000000
 11
       -0.750222
 21
      -69.149980
 31
        0.000000
  0
LINE
  8
0
 10
       15.849876
 20
      -64.849931
 30
        0.000000
 11
        7.649680
 21
      -64.849931
 31
        0.000000
  0
LINE
  8
0
 10
       15.849876
 20
      -57.649980
 30
        0.000000
 11
        7.649680
 21
      -57.649980
 31
        0.000000
  0
LINE
  8
0
 10
       15.849876
 20
      -64.849931
 30
        0.000000
 11
       15.849876
 21
      -57.649980
 31
        0.000000
  0
LINE
  8
0
 10
        7.649680
 20
      -53.349931
 30
        0.000000
 11
       -0.750222
 21
      -53.349931
 31
        0.000000
  0
LINE
  8
0
 10
        7.649680
 20
      -60.550005
 30
        0.000000
 11
       -0.750222
 21
      -60.550005
 31
        0.000000
  0
LINE
  8
0
 10
       15.849876
 20
      -56.249956
 30
        0.000000
 11
        7.649680
 21
      -56.249956
 31
        0.000000
  0
LINE
  8
0
 10
       15.849876
 20
      -49.049883
 30
        0.000000
 11
        7.649680
 21
      -49.049883
 31
        0.000000
  0
LINE
  8
0
 10
       15.849876
 20
      -56.249956
 30
        0.000000
 11
       15.849876
 21
      -49.049883
 31
        0.000000
  0
LINE
  8
0
 10
        7.649680
 20
      -44.749956
 30
        0.000000
 11
       -0.750222
 21
      -44.749956
 31
        0.000000
  0
LINE
  8
0
 10
        7.649680
 20
      -51.949907
 30
        0.000000
 11
       -0.750222
 21
      -51.949907
 31
        0.000000
  0
LINE
  8
0
 10
       15.849876
 20
      -47.649980
 30
        0.000000
 11
        7.649680
 21
      -47.649980
 31
        0.000000
  0
LINE
  8
0
 10
       15.849876
 20
      -40.449907
 30
        0.000000
 11
        7.649680
 21
      -40.449907
 31
        0.000000
  0
LINE
  8
0
 10
       15.849876
 20
      -47.649980
 30
        0.000000
 11
       15.849876
 21
      -40.449907
 31
        0.000000
  0
LINE
  8
0
 10
        7.649680
 20
      -36.149980
 30
        0.000000
 11
       -0.750222
 21
      -36.149980
 31
        0.000000
  0
LINE
  8
0
 10
        7.649680
 20
      -43.349931
 30
        0.000000
 11
       -0.750222
 21
      -43.349931
 31
        0.000000
  0
LINE
  8
0
 10
       15.849876
 20
      -39.050005
 30
        0.000000
 11
        7.649680
 21
      -39.050005
 31
        0.000000
  0
LINE
  8
0
 10
       15.849876
 20
      -31.849931
 30
        0.000000
 11
        7.649680
 21
      -31.849931
 31
        0.000000
  0
LINE
  8
0
 10
       15.849876
 20
      -39.050005
 30
        0.000000
 11
       15.849876
 21
      -31.849931
 31
        0.000000
  0
LINE
  8
0
 10
        7.649680
 20
      -27.550005
 30
        0.000000
 11
       -0.750222
 21
      -27.550005
 31
        0.000000
  0
LINE
  8
0
 10
        7.649680
 20
      -34.749956
 30
        0.000000
 11
       -0.750222
 21
      -34.749956
 31
        0.000000
  0
LINE
  8
0
 10
       15.849876
 20
      -30.449907
 30
        0.000000
 11
        7.649680
 21
      -30.449907
 31
        0.000000
  0
LINE
  8
0
 10
       15.849876
 20
      -23.249956
 30
        0.000000
 11
        7.649680
 21
      -23.249956
 31
        0.000000
  0
LINE
  8
0
 10
       15.849876
 20
      -30.449907
 30
        0.000000
 11
       15.849876
 21
      -23.249956
 31
        0.000000
  0
LINE
  8
0
 10
        7.649680
 20
      -18.949907
 30
        0.000000
 11
       -0.750222
 21
      -18.949907
 31
        0.000000
  0
LINE
  8
0
 10
        7.649680
 20
      -26.149980
 30
        0.000000
 11
       -0.750222
 21
      -26.149980
 31
        0.000000
  0
LINE
  8
0
 10
       15.849876
 20
      -21.849931
 30
        0.000000
 11
        7.649680
 21
      -21.849931
 31
        0.000000
  0
LINE
  8
0
 10
       15.849876
 20
      -14.649980
 30
        0.000000
 11
        7.649680
 21
      -14.649980
 31
        0.000000
  0
LINE
  8
0
 10
       15.849876
 20
      -21.849931
 30
        0.000000
 11
       15.849876
 21
      -14.649980
 31
        0.000000
  0
LINE
  8
0
 10
        7.649680
 20
      -10.349931
 30
        0.000000
 11
       -0.750222
 21
      -10.349931
 31
        0.000000
  0
LINE
  8
0
 10
        7.649680
 20
      -17.550005
 30
        0.000000
 11
       -0.750222
 21
      -17.550005
 31
        0.000000
  0
LINE
  8
0
 10
       15.849876
 20
      -13.249956
 30
        0.000000
 11
        7.649680
 21
      -13.249956
 31
        0.000000
  0
LINE
  8
0
 10
       15.849876
 20
       -6.050005
 30
        0.000000
 11
        7.649680
 21
       -6.050005
 31
        0.000000
  0
LINE
  8
0
 10
       15.849876
 20
      -13.249956
 30
        0.000000
 11
       15.849876
 21
       -6.050005
 31
        0.000000
  0
LINE
  8
0
 10
        7.649680
 20
       -1.749956
 30
        0.000000
 11
       -0.750222
 21
       -1.749956
 31
        0.000000
  0
LINE
  8
0
 10
        7.649680
 20
       -8.949907
 30
        0.000000
 11
       -0.750222
 21
       -8.949907
 31
        0.000000
  0
LINE
  8
0
 10
       15.849876
 20
       -4.649980
 30
        0.000000
 11
        7.649680
 21
       -4.649980
 31
        0.000000
  0
LINE
  8
0
 10
       15.849876
 20
        2.550093
 30
        0.000000
 11
        7.649680
 21
        2.550093
 31
        0.000000
  0
LINE
  8
0
 10
       15.849876
 20
       -4.649980
 30
        0.000000
 11
       15.849876
 21
        2.550093
 31
        0.000000
  0
LINE
  8
0
 10
        7.649680
 20
        6.850020
 30
        0.000000
 11
       -0.750222
 21
        6.850020
 31
        0.000000
  0
LINE
  8
0
 10
        7.649680
 20
       -0.349931
 30
        0.000000
 11
       -0.750222
 21
       -0.349931
 31
        0.000000
  0
LINE
  8
0
 10
       15.849876
 20
        3.949995
 30
        0.000000
 11
        7.649680
 21
        3.949995
 31
        0.000000
  0
LINE
  8
0
 10
       15.849876
 20
       11.150069
 30
        0.000000
 11
        7.649680
 21
       11.150069
 31
        0.000000
  0
LINE
  8
0
 10
       15.849876
 20
        3.949995
 30
        0.000000
 11
       15.849876
 21
       11.150069
 31
        0.000000
  0
LINE
  8
0
 10
        7.649680
 20
       15.449995
 30
        0.000000
 11
       -0.750222
 21
       15.449995
 31
        0.000000
  0
LINE
  8
0
 10
        7.649680
 20
        8.250044
 30
        0.000000
 11
       -0.750222
 21
        8.250044
 31
        0.000000
  0
LINE
  8
0
 10
       15.849876
 20
       12.550093
 30
        0.000000
 11
        7.649680
 21
       12.550093
 31
        0.000000
  0
LINE
  8
0
 10
       15.849876
 20
       19.750044
 30
        0.000000
 11
        7.649680
 21
       19.750044
 31
        0.000000
  0
LINE
  8
0
 10
       15.849876
 20
       12.550093
 30
        0.000000
 11
       15.849876
 21
       19.750044
 31
        0.000000
  0
LINE
  8
0
 10
        7.649680
 20
       24.050093
 30
        0.000000
 11
       -0.750222
 21
       24.050093
 31
        0.000000
  0
LINE
  8
0
 10
        7.649680
 20
       16.850020
 30
        0.000000
 11
       -0.750222
 21
       16.850020
 31
        0.000000
  0
LINE
  8
0
 10
       15.849876
 20
       21.150069
 30
        0.000000
 11
        7.649680
 21
       21.150069
 31
        0.000000
  0
LINE
  8
0
 10
       15.849876
 20
       28.350020
 30
        0.000000
 11
        7.649680
 21
       28.350020
 31
        0.000000
  0
LINE
  8
0
 10
       15.849876
 20
       21.150069
 30
        0.000000
 11
       15.849876
 21
       28.350020
 31
        0.000000
  0
LINE
  8
0
 10
        7.649680
 20
       32.650069
 30
        0.000000
 11
       -0.750222
 21
       32.650069
 31
        0.000000
  0
LINE
  8
0
 10
        7.649680
 20
       25.449995
 30
        0.000000
 11
       -0.750222
 21
       25.449995
 31
        0.000000
  0
LINE
  8
0
 10
       15.849876
 20
       29.750044
 30
        0.000000
 11
        7.649680
 21
       29.750044
 31
        0.000000
  0
LINE
  8
0
 10
       15.849876
 20
       36.949995
 30
        0.000000
 11
        7.649680
 21
       36.949995
 31
        0.000000
  0
LINE
  8
0
 10
       15.849876
 20
       29.750044
 30
        0.000000
 11
       15.849876
 21
       36.949995
 31
        0.000000
  0
LINE
  8
0
 10
        7.649680
 20
       41.250044
 30
        0.000000
 11
       -0.750222
 21
       41.250044
 31
        0.000000
  0
LINE
  8
0
 10
        7.649680
 20
       34.050093
 30
        0.000000
 11
       -0.750222
 21
       34.050093
 31
        0.000000
  0
LINE
  8
0
 10
       15.849876
 20
       38.350020
 30
        0.000000
 11
        7.649680
 21
       38.350020
 31
        0.000000
  0
LINE
  8
0
 10
       15.849876
 20
       45.550093
 30
        0.000000
 11
        7.649680
 21
       45.550093
 31
        0.000000
  0
LINE
  8
0
 10
       15.849876
 20
       38.350020
 30
        0.000000
 11
       15.849876
 21
       45.550093
 31
        0.000000
  0
LINE
  8
0
 10
       15.849876
 20
       46.949995
 30
        0.000000
 11
       15.849876
 21
       54.150069
 31
        0.000000
  0
LINE
  8
0
 10
        7.649680
 20
     -113.550005
 30
        0.000000
 11
        7.649680
 21
       55.550093
 31
        0.000000
  0
LINE
  8
0
 10
        7.649680
 20
       42.650069
 30
        0.000000
 11
       -0.750222
 21
       42.650069
 31
        0.000000
  0
LINE
  8
0
 10
        7.649680
 20
       49.850020
 30
        0.000000
 11
       -0.750222
 21
       49.850020
 31
        0.000000
  0
LINE
  8
0
 10
       15.849876
 20
       46.949995
 30
        0.000000
 11
        7.649680
 21
       46.949995
 31
        0.000000
  0
LINE
  8
0
 10
       15.849876
 20
       54.150069
 30
        0.000000
 11
        7.649680
 21
       54.150069
 31
        0.000000
  0
CIRCLE
  8
0
 10
        9.949485
 20
     -118.999956
 30
        0.000000
 40
        3.000000
  0
CIRCLE
  8
0
 10
        9.949485
 20
       61.000044
 30
        0.000000
 40
        3.000000
  0
LINE
  8
0
 10
       -0.750222
 20
     -123.999956
 30
        0.000000
 11
       -0.750222
 21
       66.000044
 31
        0.000000
  0
LINE
  8
0
 10
      -14.699807
 20
      114.000105
 30
        0.000000
 11
      -14.699807
 21
      121.000105
 31
        0.000000
  0
LINE
  8
0
 10
      -14.699807
 20
      121.000105
 30
        0.000000
 11
       14.700095
 21
      121.000105
 31
        0.000000
  0
LINE
  8
0
 10
       14.700095
 20
      114.000105
 30
        0.000000
 11
       14.700095
 21
      121.000105
 31
        0.000000
  0
LINE
  8
0
 10
      -14.699807
 20
      114.000105
 30
        0.000000
 11
       14.700095
 21
      114.000105
 31
        0.000000
  0
LINE
  8
0
 10
      -15.449929
 20
     -115.499956
 30
        0.000000
 11
       -0.749978
 21
     -115.499956
 31
        0.000000
  0
LINE
  8
0
 10
      -15.449929
 20
       57.500105
 30
        0.000000
 11
       -0.749978
 21
       57.500105
 31
        0.000000
  0
LINE
  8
0
 10
      -15.449929
 20
       57.500105
 30
        0.000000
 11
      -15.449929
 21
     -115.499956
 31
        0.000000
  0
LINE
  8
0
 10
      -16.749978
 20
     -124.999956
 30
        0.000000
 11
       16.750022
 21
     -124.999956
 31
        0.000000
  0
LINE
  8
0
 10
      -16.749978
 20
       70.000105
 30
        0.000000
 11
       16.750022
 21
       70.000105
 31
        0.000000
  0
LINE
  8
0
 10
      -16.749978
 20
       75.000105
 30
        0.000000
 11
       16.750022
 21
       75.000105
 31
        0.000000
  0
LINE
  8
0
 10
       16.749778
 20
       66.000044
 30
        0.000000
 11
       -0.750222
 21
       66.000044
 31
        0.000000
  0
ENDSEC
  0
EOF
