  0
SECTION
  2
HEADER
  9
$ACADVER
  1
AC1006
  9
$INSBASE
 10
0.0
 20
0.0
 30
0.0
  9
$EXTMIN
 10
     -144.365448
 20
     -144.365448
  9
$EXTMAX
 10
      178.500244
 20
      178.500244
  9
$LIMMIN
 10
     -144.365448
 20
     -144.365448
  9
$LIMMAX
 10
      178.500244
 20
      178.500244
  9
$VIEWCTR
 10
       17.067398
 20
       17.067398
  9
$ORTHOMODE
 70
     0
  9
$ANGBASE
 50
0.0
  9
$ANGDIR
 70
     0
  9
$SPLINETYPE
 70
     6
  9
$SPLINESEGS
 70
     8
9
$DIMASZ
 40
        6.000000
9
$DIMEXE
 40
        1.500000
9
$DIMEXO
 40
        2.500000
9
$DIMTXT
 40
        5.000000
9
$DIMGAP
 40
        1.500000
9
$DIMTAD
 70
1
9
$DIMTIH
 70
0
9
$DIMTOH
 70
0
  0
ENDSEC
  0
SECTION
  2
TABLES
  0
TABLE
  2
LTYPE
 70
     5
  0
LTYPE
  2
CONTINUOUS
 70
    64
  3
SOLID LINE
 72
    65
 73
     0
 40
0.0
  0
LTYPE
  2
DASHED
 70
    64
  3
-- -- -- -- -- --
 72
    65
 73
     2
 40
  0.75  
 49
  0.50  
 49
 -0.25  
  0
LTYPE
  2
DOT
 70
    64
  3
....................
 72
    65
 73
     2
 40
  0.25  
 49
  0.02  
 49
 -0.23  
  0
LTYPE
  2
CENTER
 70
    64
  3
-- . -- . -- . -- .
 72
    65
 73
    4
 40
  2.00  
 49
  1.25  
 49
 -0.25  
 49
  0.25  
 49
 -0.25  
  0
LTYPE
  2
PHANTOM
 70
    64
  3
-- .. -- .. -- ..
 72
    65
 73
    6
 40
  2.50  
 49
  1.25  
 49
 -0.25  
 49
  0.25  
 49
 -0.25  
 49
  0.25  
 49
 -0.25  
  0
ENDTAB
  0
TABLE
  2
LAYER
 70
     1
  0
LAYER
  2
0
 70
    64
 62
     3
  6
CONTINUOUS
  0
ENDTAB
  0
TABLE
  2
STYLE
 70
     2
  0
STYLE
  2
STANDARD
 70
    64
 40
0.0
 41
1.0
 50
0.0
 71
     0
 42
5.0
  3
ROMANS
  4
BIGFONT
  0
STYLE
  2
BIGFONT
 70
    64
 40
0.0
 41
1.0
 50
0.0
 71
     0
 42
5.0
  3
ROMANS
  4
BIGFONT
  0
ENDTAB
  0
TABLE
  2
VIEW
 70
     0
  0
ENDTAB
  0
TABLE
  2
UCS
 70
     0
  0
ENDTAB
  0
TABLE
  2
DWGMGR
 70
     0
  0
ENDTAB
  0
ENDSEC
  0
SECTION
  2
BLOCKS
  0
BLOCK
  8
0
  2
BLK0001
 70
    64
 10
        0.000000
 20
        0.000000
  0
TEXT
  8
0
 62
  2
 10
      112.480209
 20
     -138.367950
 30
        0.000000
 40
        3.340000
  1
１０５
 50
        0.000000
 41
        1.000000
 51
        0.000000
  7
BIGFONT
  0
LINE
  8
0
 62
  2
 10
      174.999954
 20
     -125.500000
 30
        0.000000
 11
      174.999954
 21
     -140.767944
 31
        0.000000
  0
LINE
  8
0
 62
  2
 10
       70.000000
 20
     -126.388916
 30
        0.000000
 11
       70.000000
 21
     -140.767944
 31
        0.000000
  0
LINE
  8
0
 62
  2
 10
      171.999954
 20
     -140.353348
 30
        0.000000
 11
      174.999954
 21
     -139.567947
 31
        0.000000
  0
LINE
  8
0
 62
  2
 10
      174.999954
 20
     -139.567947
 30
        0.000000
 11
      171.999954
 21
     -138.782547
 31
        0.000000
  0
LINE
  8
0
 62
  2
 10
       73.000000
 20
     -138.782547
 30
        0.000000
 11
       70.000000
 21
     -139.567947
 31
        0.000000
  0
LINE
  8
0
 62
  2
 10
       70.000000
 20
     -139.567947
 30
        0.000000
 11
       73.000000
 21
     -140.353348
 31
        0.000000
  0
LINE
  8
0
 62
  2
 10
      174.999954
 20
     -139.567947
 30
        0.000000
 11
       70.000000
 21
     -139.567947
 31
        0.000000
  0
ENDBLK
  0
BLOCK
  8
0
  2
BLK0002
 70
    64
 10
        0.000000
 20
        0.000000
  0
TEXT
  8
0
 62
  2
 10
       33.955940
 20
       -6.056659
 30
        0.000000
 40
        3.340000
  1
２５０
 50
       90.000000
 41
        1.000000
 51
        0.000000
  7
BIGFONT
  0
LINE
  8
0
 62
  2
 10
       18.750000
 20
      125.000000
 30
        0.000000
 11
       36.355942
 21
      125.000000
 31
        0.000000
  0
LINE
  8
0
 62
  2
 10
       18.750000
 20
     -125.000000
 30
        0.000000
 11
       36.355942
 21
     -125.000000
 31
        0.000000
  0
LINE
  8
0
 62
  2
 10
       35.941341
 20
      122.000000
 30
        0.000000
 11
       35.155941
 21
      125.000000
 31
        0.000000
  0
LINE
  8
0
 62
  2
 10
       35.155941
 20
      125.000000
 30
        0.000000
 11
       34.370541
 21
      122.000000
 31
        0.000000
  0
LINE
  8
0
 62
  2
 10
       34.370541
 20
     -122.000000
 30
        0.000000
 11
       35.155941
 21
     -125.000000
 31
        0.000000
  0
LINE
  8
0
 62
  2
 10
       35.155941
 20
     -125.000000
 30
        0.000000
 11
       35.941338
 21
     -122.000000
 31
        0.000000
  0
LINE
  8
0
 62
  2
 10
       35.155941
 20
      125.000000
 30
        0.000000
 11
       35.155941
 21
     -125.000000
 31
        0.000000
  0
ENDBLK
  0
BLOCK
  8
0
  2
BLK0003
 70
    64
 10
        0.000000
 20
        0.000000
  0
TEXT
  8
0
 62
  2
 10
       -7.522929
 20
     -141.965454
 30
        0.000000
 40
        3.340000
  1
３３．５
 50
        0.000000
 41
        1.000000
 51
        0.000000
  7
BIGFONT
  0
LINE
  8
0
 62
  2
 10
      -16.750000
 20
     -127.000000
 30
        0.000000
 11
      -16.750000
 21
     -144.365448
 31
        0.000000
  0
LINE
  8
0
 62
  2
 10
       16.750000
 20
     -127.000000
 30
        0.000000
 11
       16.750000
 21
     -144.365448
 31
        0.000000
  0
LINE
  8
0
 62
  2
 10
      -13.750000
 20
     -142.380051
 30
        0.000000
 11
      -16.750000
 21
     -143.165451
 31
        0.000000
  0
LINE
  8
0
 62
  2
 10
      -16.750000
 20
     -143.165451
 30
        0.000000
 11
      -13.750000
 21
     -143.950851
 31
        0.000000
  0
LINE
  8
0
 62
  2
 10
       13.750000
 20
     -143.950851
 30
        0.000000
 11
       16.750000
 21
     -143.165451
 31
        0.000000
  0
LINE
  8
0
 62
  2
 10
       16.750000
 20
     -143.165451
 30
        0.000000
 11
       13.750000
 21
     -142.380051
 31
        0.000000
  0
LINE
  8
0
 62
  2
 10
      -16.750000
 20
     -143.165451
 30
        0.000000
 11
       16.750000
 21
     -143.165451
 31
        0.000000
  0
ENDBLK
  0
ENDSEC
  0
SECTION
  2
ENTITIES
  0
LINE
  8
0
 10
        0.149987
 20
     -113.000078
 30
        0.000000
 11
        9.250048
 21
     -113.000078
 31
        0.000000
  0
ARC
  8
0
 10
        0.149987
 20
     -111.000078
 30
        0.000000
 40
        2.000000
 50
      180.000011
 51
      270.000000
  0
LINE
  8
0
 10
       -1.850016
 20
      -39.000078
 30
        0.000000
 11
       -1.850013
 21
     -111.000078
 31
        0.000000
  0
ARC
  8
0
 10
        0.149984
 20
      -39.000078
 30
        0.000000
 40
        2.000000
 50
       90.000000
 51
      180.000011
  0
LINE
  8
0
 10
      -14.699807
 20
      114.000105
 30
        0.000000
 11
       14.700095
 21
      114.000105
 31
        0.000000
  0
LINE
  8
0
 10
       14.700095
 20
      114.000105
 30
        0.000000
 11
       14.700095
 21
      121.000105
 31
        0.000000
  0
LINE
  8
0
 10
      -14.699807
 20
      121.000105
 30
        0.000000
 11
       14.700095
 21
      121.000105
 31
        0.000000
  0
LINE
  8
0
 10
      -14.699807
 20
      114.000105
 30
        0.000000
 11
      -14.699807
 21
      121.000105
 31
        0.000000
  0
CIRCLE
  8
0
 10
       -8.750222
 20
      111.000105
 30
        0.000000
 40
        1.000000
  0
CIRCLE
  8
0
 10
       -3.750222
 20
      111.000105
 30
        0.000000
 40
        1.000000
  0
CIRCLE
  8
0
 10
       -3.750222
 20
       84.000105
 30
        0.000000
 40
        1.000000
  0
CIRCLE
  8
0
 10
        1.249778
 20
      111.000105
 30
        0.000000
 40
        1.000000
  0
CIRCLE
  8
0
 10
        6.249778
 20
      111.000105
 30
        0.000000
 40
        1.000000
  0
LINE
  8
0
  6
CENTER
 10
       30.000000
 20
        0.000000
 30
        0.000000
 11
      -30.250000
 21
        0.000000
 31
        0.000000
  0
LINE
  8
0
 10
      -16.749978
 20
       75.000105
 30
        0.000000
 11
       16.750022
 21
       75.000105
 31
        0.000000
  0
LINE
  8
0
 10
      -16.749978
 20
       70.000105
 30
        0.000000
 11
       16.750022
 21
       70.000105
 31
        0.000000
  0
LINE
  8
0
 10
      -16.749978
 20
     -124.999956
 30
        0.000000
 11
       16.749778
 21
     -124.999956
 31
        0.000000
  0
LINE
  8
0
 10
      -16.749978
 20
      125.000005
 30
        0.000000
 11
      -16.749978
 21
     -124.999956
 31
        0.000000
  0
LINE
  8
0
 10
      -16.749978
 20
      125.000005
 30
        0.000000
 11
       16.750022
 21
      125.000005
 31
        0.000000
  0
LINE
  8
0
 10
       16.750022
 20
      125.000005
 30
        0.000000
 11
       16.750022
 21
     -124.999956
 31
        0.000000
  0
INSERT
  8
0
 62
  5
  2
BLK0001
 10
        0.000000
 20
        0.000000
  0
INSERT
  8
0
 62
  5
  2
BLK0002
 10
        0.000000
 20
        0.000000
  0
INSERT
  8
0
 62
  5
  2
BLK0003
 10
        0.000000
 20
        0.000000
  0
TEXT
  8
0
 62
  2
 10
      -15.263775
 20
      160.650678
 30
        0.000000
 40
        4.175000
  1
ＪＷ３２ＳＣ
 50
        0.000000
 41
        1.000000
 51
        0.000000
  7
BIGFONT
  0
TEXT
  8
0
 62
  2
 10
      -15.263775
 20
      167.650678
 30
        0.000000
 40
        4.175000
  1
ＪＷ３４ＮＣ
 50
        0.000000
 41
        1.000000
 51
        0.000000
  7
BIGFONT
  0
LINE
  8
0
  6
CENTER
 10
        0.000000
 20
      135.705527
 30
        0.000000
 11
        0.000000
 21
     -135.069355
 31
        0.000000
  0
LINE
  8
0
 10
      105.000000
 20
      125.000000
 30
        0.000000
 11
       75.491699
 21
      124.485107
 31
        0.000000
  0
ARC
  8
0
 10
       70.500000
 20
       69.500000
 30
        0.000000
 40
        0.500000
 50
       90.000000
 51
      180.000015
  0
LINE
  8
0
 10
       70.500000
 20
       70.000000
 30
        0.000000
 11
       72.000000
 21
       70.000000
 31
        0.000000
  0
LINE
  8
0
 10
       72.000000
 20
       75.000000
 30
        0.000000
 11
       72.000000
 21
       70.000000
 31
        0.000000
  0
LINE
  8
0
 10
       70.000000
 20
       75.000000
 30
        0.000000
 11
       70.000000
 21
      124.399963
 31
        0.000000
  0
LINE
  8
0
 10
       70.000000
 20
      124.399963
 30
        0.000000
 11
       75.000000
 21
      124.399963
 31
        0.000000
  0
LINE
  8
0
 10
      162.000200
 20
     -125.000000
 30
        0.000000
 11
      105.000000
 21
     -125.000000
 31
        0.000000
  0
LINE
  8
0
 10
      174.999956
 20
     -123.500000
 30
        0.000000
 11
      162.000200
 21
     -123.500000
 31
        0.000000
  0
LINE
  8
0
 10
      165.000200
 20
     -123.500000
 30
        0.000000
 11
      165.000200
 21
     -125.000000
 31
        0.000000
  0
LINE
  8
0
 10
      172.499956
 20
     -125.000000
 30
        0.000000
 11
      165.000200
 21
     -125.000000
 31
        0.000000
  0
LINE
  8
0
 10
      174.999956
 20
       -5.500000
 30
        0.000000
 11
      174.999956
 21
     -123.500000
 31
        0.000000
  0
LINE
  8
0
 10
      162.000200
 20
      125.000244
 30
        0.000000
 11
      105.000000
 21
      125.000244
 31
        0.000000
  0
LINE
  8
0
 10
      174.999956
 20
      123.500244
 30
        0.000000
 11
      174.999956
 21
       81.500244
 31
        0.000000
  0
LINE
  8
0
 10
      174.999956
 20
       81.500244
 30
        0.000000
 11
      172.499956
 21
       81.500244
 31
        0.000000
  0
LINE
  8
0
 10
      165.000200
 20
      125.000244
 30
        0.000000
 11
      165.000200
 21
      123.500244
 31
        0.000000
  0
LINE
  8
0
 10
      114.499268
 20
       12.500000
 30
        0.000000
 11
      164.499268
 21
       12.500000
 31
        0.000000
  0
LINE
  8
0
 10
      111.000000
 20
      -56.500000
 30
        0.000000
 11
      108.000000
 21
      -56.500000
 31
        0.000000
  0
LINE
  8
0
 10
      108.000000
 20
       56.500244
 30
        0.000000
 11
      108.000000
 21
       43.500244
 31
        0.000000
  0
LINE
  8
0
 10
      104.999956
 20
      145.000244
 30
        0.000000
 11
      104.999956
 21
      178.500244
 31
        0.000000
  0
LINE
  8
0
 10
      174.999956
 20
      145.000244
 30
        0.000000
 11
      174.999956
 21
      178.500244
 31
        0.000000
  0
LINE
  8
0
 10
       69.999956
 20
      145.611171
 30
        0.000000
 11
       69.999956
 21
      177.889317
 31
        0.000000
  0
LINE
  8
0
 10
       75.000001
 20
      145.523895
 30
        0.000000
 11
       75.000001
 21
      177.976593
 31
        0.000000
  0
LINE
  8
0
 10
      107.999712
 20
      145.000244
 30
        0.000000
 11
      107.999712
 21
      178.500244
 31
        0.000000
  0
LINE
  8
0
 10
      110.999712
 20
      145.000244
 30
        0.000000
 11
      110.999712
 21
      178.500244
 31
        0.000000
  0
LINE
  8
0
 10
      113.999712
 20
      145.000244
 30
        0.000000
 11
      113.999712
 21
      178.500244
 31
        0.000000
  0
LINE
  8
0
 10
      116.999956
 20
      145.000244
 30
        0.000000
 11
      116.999956
 21
      178.500244
 31
        0.000000
  0
LINE
  8
0
 10
      119.999956
 20
      145.000244
 30
        0.000000
 11
      119.999956
 21
      178.500244
 31
        0.000000
  0
LINE
  8
0
 10
      122.999956
 20
      145.000244
 30
        0.000000
 11
      122.999956
 21
      178.500244
 31
        0.000000
  0
LINE
  8
0
 10
      125.999956
 20
      145.000244
 30
        0.000000
 11
      125.999956
 21
      178.500244
 31
        0.000000
  0
LINE
  8
0
 10
      128.999956
 20
      145.000244
 30
        0.000000
 11
      128.999956
 21
      178.500244
 31
        0.000000
  0
LINE
  8
0
 10
      131.999956
 20
      145.000244
 30
        0.000000
 11
      131.999956
 21
      178.500244
 31
        0.000000
  0
LINE
  8
0
 10
      134.999956
 20
      145.000244
 30
        0.000000
 11
      134.999956
 21
      178.500244
 31
        0.000000
  0
LINE
  8
0
 10
      137.999956
 20
      145.000244
 30
        0.000000
 11
      137.999956
 21
      178.500244
 31
        0.000000
  0
LINE
  8
0
 10
      140.999956
 20
      145.000244
 30
        0.000000
 11
      140.999956
 21
      178.500244
 31
        0.000000
  0
LINE
  8
0
 10
      143.999956
 20
      145.000244
 30
        0.000000
 11
      143.999956
 21
      178.500244
 31
        0.000000
  0
LINE
  8
0
 10
      149.999956
 20
      145.000244
 30
        0.000000
 11
      149.999956
 21
      178.500244
 31
        0.000000
  0
LINE
  8
0
 10
      152.999956
 20
      145.000244
 30
        0.000000
 11
      152.999956
 21
      178.500244
 31
        0.000000
  0
LINE
  8
0
 10
      155.999956
 20
      145.000244
 30
        0.000000
 11
      155.999956
 21
      178.500244
 31
        0.000000
  0
LINE
  8
0
 10
      161.999956
 20
      145.000244
 30
        0.000000
 11
      161.999956
 21
      178.500244
 31
        0.000000
  0
LINE
  8
0
 10
      172.499956
 20
      158.000244
 30
        0.000000
 11
      164.999956
 21
      158.000244
 31
        0.000000
  0
LINE
  8
0
 10
      174.999956
 20
      145.000244
 30
        0.000000
 11
      104.999956
 21
      145.000244
 31
        0.000000
  0
LINE
  8
0
 10
      174.999956
 20
      178.500244
 30
        0.000000
 11
      104.999956
 21
      178.500244
 31
        0.000000
  0
LINE
  8
0
 10
      164.999956
 20
      145.000244
 30
        0.000000
 11
      164.999956
 21
      178.500244
 31
        0.000000
  0
LINE
  8
0
 10
      172.499956
 20
      158.000244
 30
        0.000000
 11
      172.499956
 21
      165.500244
 31
        0.000000
  0
LINE
  8
0
 10
      158.999956
 20
      145.000244
 30
        0.000000
 11
      158.999956
 21
      178.500244
 31
        0.000000
  0
LINE
  8
0
 10
      146.999956
 20
      145.000244
 30
        0.000000
 11
      146.999956
 21
      178.500244
 31
        0.000000
  0
LINE
  8
0
 10
      104.999956
 20
      178.500244
 30
        0.000000
 11
       69.999956
 21
      177.889317
 31
        0.000000
  0
LINE
  8
0
 10
      104.999956
 20
      145.000244
 30
        0.000000
 11
       69.999956
 21
      145.611171
 31
        0.000000
  0
LINE
  8
0
 10
      111.000000
 20
       56.500244
 30
        0.000000
 11
      111.000000
 21
       43.500244
 31
        0.000000
  0
LINE
  8
0
 10
      111.000000
 20
       56.500244
 30
        0.000000
 11
      108.000000
 21
       56.500244
 31
        0.000000
  0
LINE
  8
0
 10
      111.000000
 20
       43.500244
 30
        0.000000
 11
      108.000000
 21
       43.500244
 31
        0.000000
  0
LINE
  8
0
 10
      111.000000
 20
      -43.500000
 30
        0.000000
 11
      108.000000
 21
      -43.500000
 31
        0.000000
  0
LINE
  8
0
 10
      108.000000
 20
      -43.500000
 30
        0.000000
 11
      108.000000
 21
      -56.500000
 31
        0.000000
  0
LINE
  8
0
 10
      111.000000
 20
      -43.500000
 30
        0.000000
 11
      111.000000
 21
      -56.500000
 31
        0.000000
  0
LINE
  8
0
 10
      105.000000
 20
      125.000244
 30
        0.000000
 11
      105.000000
 21
     -125.000000
 31
        0.000000
  0
LINE
  8
0
 10
      164.499268
 20
       12.500000
 30
        0.000000
 11
      164.499268
 21
      -12.500000
 31
        0.000000
  0
LINE
  8
0
 10
      164.499268
 20
      -12.500000
 30
        0.000000
 11
      114.499268
 21
      -12.500000
 31
        0.000000
  0
LINE
  8
0
 10
      114.499268
 20
      -12.500000
 30
        0.000000
 11
      114.499268
 21
       12.500000
 31
        0.000000
  0
LINE
  8
0
 10
      162.000200
 20
      123.500244
 30
        0.000000
 11
      162.000200
 21
      125.000244
 31
        0.000000
  0
LINE
  8
0
 10
      172.499956
 20
      125.000244
 30
        0.000000
 11
      172.499956
 21
      123.500244
 31
        0.000000
  0
LINE
  8
0
 10
      174.999956
 20
      123.500244
 30
        0.000000
 11
      162.000200
 21
      123.500244
 31
        0.000000
  0
LINE
  8
0
 10
      172.499956
 20
       81.500244
 30
        0.000000
 11
      172.499956
 21
       -5.500000
 31
        0.000000
  0
LINE
  8
0
 10
      172.499956
 20
      125.000244
 30
        0.000000
 11
      165.000200
 21
      125.000244
 31
        0.000000
  0
LINE
  8
0
 10
      172.499956
 20
       -5.500000
 30
        0.000000
 11
      174.999956
 21
       -5.500000
 31
        0.000000
  0
LINE
  8
0
 10
      162.000200
 20
     -123.500000
 30
        0.000000
 11
      162.000200
 21
     -125.000000
 31
        0.000000
  0
LINE
  8
0
 10
      172.499956
 20
     -123.500000
 30
        0.000000
 11
      172.499956
 21
     -125.000000
 31
        0.000000
  0
LINE
  8
0
 10
       75.000000
 20
       75.000000
 30
        0.000000
 11
       75.000000
 21
      123.985107
 31
        0.000000
  0
LINE
  8
0
 10
       70.000000
 20
       75.000000
 30
        0.000000
 11
       75.000000
 21
       75.000000
 31
        0.000000
  0
LINE
  8
0
 10
       70.000000
 20
       69.500000
 30
        0.000000
 11
       70.000000
 21
     -124.388916
 31
        0.000000
  0
LINE
  8
0
 10
      105.000000
 20
     -125.000000
 30
        0.000000
 11
       70.000000
 21
     -124.388916
 31
        0.000000
  0
ARC
  8
0
 10
       75.500000
 20
      123.985107
 30
        0.000000
 40
        0.499955
 50
       91.007286
 51
      180.000015
  0
LINE
  8
0
 10
      172.499956
 20
      165.500244
 30
        0.000000
 11
      164.999956
 21
      165.500244
 31
        0.000000
  0
LINE
  8
0
 10
        0.000022
 20
     -104.240076
 30
        0.000000
 11
        8.250022
 21
     -104.240076
 31
        0.000000
  0
LINE
  8
0
 10
        0.000022
 20
     -104.240076
 30
        0.000000
 11
        0.000022
 21
      -45.760080
 31
        0.000000
  0
LINE
  8
0
 10
        0.250022
 20
     -104.240076
 30
        0.000000
 11
        0.250022
 21
     -109.740076
 31
        0.000000
  0
LINE
  8
0
 10
        0.250022
 20
     -109.740076
 30
        0.000000
 11
        7.250022
 21
     -109.740076
 31
        0.000000
  0
CIRCLE
  8
0
 10
        3.750022
 20
     -106.990076
 30
        0.000000
 40
        1.300000
  0
CIRCLE
  8
0
 10
        3.750022
 20
     -106.990076
 30
        0.000000
 40
        1.000000
  0
LINE
  8
0
 10
        7.250022
 20
     -104.240076
 30
        0.000000
 11
        7.250022
 21
     -109.740076
 31
        0.000000
  0
LINE
  8
0
 10
        7.250022
 20
      -45.760080
 30
        0.000000
 11
        7.250022
 21
      -40.260080
 31
        0.000000
  0
CIRCLE
  8
0
 10
        3.750022
 20
      -43.010080
 30
        0.000000
 40
        1.000000
  0
CIRCLE
  8
0
 10
        3.750022
 20
      -43.010080
 30
        0.000000
 40
        1.300000
  0
LINE
  8
0
 10
        0.250022
 20
      -40.260080
 30
        0.000000
 11
        7.250022
 21
      -40.260080
 31
        0.000000
  0
LINE
  8
0
 10
        0.250022
 20
      -45.760080
 30
        0.000000
 11
        0.250022
 21
      -40.260080
 31
        0.000000
  0
ARC
  8
0
 10
        5.250022
 20
      -99.977930
 30
        0.000000
 40
        2.000000
 50
      255.749937
 51
      360.000000
  0
LINE
  8
0
 10
        7.250022
 20
      -99.977930
 30
        0.000000
 11
        7.250022
 21
      -50.022241
 31
        0.000000
  0
LINE
  8
0
 10
        2.507712
 20
     -101.344965
 30
        0.000000
 11
        4.757713
 21
     -101.916391
 31
        0.000000
  0
ARC
  8
0
 10
        3.000022
 20
      -99.406503
 30
        0.000000
 40
        2.000000
 50
      180.000015
 51
      255.749937
  0
LINE
  8
0
 10
        1.000022
 20
      -99.406503
 30
        0.000000
 11
        1.000022
 21
      -50.593668
 31
        0.000000
  0
ARC
  8
0
 10
        5.250022
 20
      -50.022241
 30
        0.000000
 40
        2.000000
 50
        0.000000
 51
      104.250080
  0
LINE
  8
0
 10
        2.507712
 20
      -48.655206
 30
        0.000000
 11
        4.757713
 21
      -48.083780
 31
        0.000000
  0
ARC
  8
0
 10
        3.000022
 20
      -50.593668
 30
        0.000000
 40
        2.000000
 50
      104.250080
 51
      180.000015
  0
LINE
  8
0
 10
        0.000022
 20
      -45.760080
 30
        0.000000
 11
        8.250022
 21
      -45.760080
 31
        0.000000
  0
CIRCLE
  8
0
 10
       -8.750222
 20
      108.000105
 30
        0.000000
 40
        1.000000
  0
CIRCLE
  8
0
 10
       -3.750222
 20
      108.000105
 30
        0.000000
 40
        1.000000
  0
CIRCLE
  8
0
 10
        1.249778
 20
      108.000105
 30
        0.000000
 40
        1.000000
  0
CIRCLE
  8
0
 10
        6.249778
 20
      108.000105
 30
        0.000000
 40
        1.000000
  0
CIRCLE
  8
0
 10
       -8.750222
 20
      105.000105
 30
        0.000000
 40
        1.000000
  0
CIRCLE
  8
0
 10
       -3.750222
 20
      105.000105
 30
        0.000000
 40
        1.000000
  0
CIRCLE
  8
0
 10
        1.249778
 20
      105.000105
 30
        0.000000
 40
        1.000000
  0
CIRCLE
  8
0
 10
        6.249778
 20
      105.000105
 30
        0.000000
 40
        1.000000
  0
CIRCLE
  8
0
 10
       -8.750222
 20
      102.000105
 30
        0.000000
 40
        1.000000
  0
CIRCLE
  8
0
 10
       -3.750222
 20
      102.000105
 30
        0.000000
 40
        1.000000
  0
CIRCLE
  8
0
 10
        1.249778
 20
      102.000105
 30
        0.000000
 40
        1.000000
  0
CIRCLE
  8
0
 10
        6.249778
 20
      102.000105
 30
        0.000000
 40
        1.000000
  0
CIRCLE
  8
0
 10
       -8.750222
 20
       99.000105
 30
        0.000000
 40
        1.000000
  0
CIRCLE
  8
0
 10
       -3.750222
 20
       99.000105
 30
        0.000000
 40
        1.000000
  0
CIRCLE
  8
0
 10
        1.249778
 20
       99.000105
 30
        0.000000
 40
        1.000000
  0
CIRCLE
  8
0
 10
        6.249778
 20
       99.000105
 30
        0.000000
 40
        1.000000
  0
CIRCLE
  8
0
 10
       -8.750222
 20
       96.000105
 30
        0.000000
 40
        1.000000
  0
CIRCLE
  8
0
 10
       -3.750222
 20
       96.000105
 30
        0.000000
 40
        1.000000
  0
CIRCLE
  8
0
 10
        1.249778
 20
       96.000105
 30
        0.000000
 40
        1.000000
  0
CIRCLE
  8
0
 10
        6.249778
 20
       96.000105
 30
        0.000000
 40
        1.000000
  0
CIRCLE
  8
0
 10
       -8.750222
 20
       93.000105
 30
        0.000000
 40
        1.000000
  0
CIRCLE
  8
0
 10
       -3.750222
 20
       93.000105
 30
        0.000000
 40
        1.000000
  0
CIRCLE
  8
0
 10
        1.249778
 20
       93.000105
 30
        0.000000
 40
        1.000000
  0
CIRCLE
  8
0
 10
        6.249778
 20
       93.000105
 30
        0.000000
 40
        1.000000
  0
CIRCLE
  8
0
 10
       -8.750222
 20
       90.000105
 30
        0.000000
 40
        1.000000
  0
CIRCLE
  8
0
 10
       -3.750222
 20
       90.000105
 30
        0.000000
 40
        1.000000
  0
CIRCLE
  8
0
 10
        1.249778
 20
       90.000105
 30
        0.000000
 40
        1.000000
  0
CIRCLE
  8
0
 10
        6.249778
 20
       90.000105
 30
        0.000000
 40
        1.000000
  0
LINE
  8
0
 10
        9.850022
 20
      -37.000078
 30
        0.000000
 11
        9.850022
 21
     -113.000078
 31
        0.000000
  0
LINE
  8
0
 10
        8.250022
 20
      -37.000078
 30
        0.000000
 11
        8.250022
 21
     -113.000078
 31
        0.000000
  0
LINE
  8
0
 10
        9.250045
 20
      -37.000078
 30
        0.000000
 11
        0.149984
 21
      -37.000078
 31
        0.000000
  0
ARC
  8
0
 10
        9.250045
 20
      -39.000078
 30
        0.000000
 40
        1.999998
 50
        0.000003
 51
       90.000000
  0
LINE
  8
0
 10
       11.250046
 20
     -111.000078
 30
        0.000000
 11
       11.250043
 21
      -39.000078
 31
        0.000000
  0
ARC
  8
0
 10
        9.250048
 20
     -111.000078
 30
        0.000000
 40
        2.000000
 50
      270.000000
 51
      360.000003
  0
ENDSEC
  0
EOF
