  0
SECTION
  2
HEADER
  9
$ACADVER
  1
AC1006
  9
$INSBASE
 10
0.0
 20
0.0
 30
0.0
  9
$EXTMIN
 10
     -270.966797
 20
     -270.966797
  9
$EXTMAX
 10
      158.000183
 20
       43.500122
  9
$LIMMIN
 10
     -270.966797
 20
     -270.966797
  9
$LIMMAX
 10
      158.000183
 20
       43.500122
  9
$VIEWCTR
 10
      -56.483307
 20
      -56.483307
  9
$ORTHOMODE
 70
     0
  9
$ANGBASE
 50
0.0
  9
$ANGDIR
 70
     0
  9
$SPLINETYPE
 70
     6
  9
$SPLINESEGS
 70
     8
9
$DIMASZ
 40
        6.000000
9
$DIMEXE
 40
        1.500000
9
$DIMEXO
 40
        2.500000
9
$DIMTXT
 40
        5.000000
9
$DIMGAP
 40
        1.500000
9
$DIMTAD
 70
1
9
$DIMTIH
 70
0
9
$DIMTOH
 70
0
  0
ENDSEC
  0
SECTION
  2
TABLES
  0
TABLE
  2
LTYPE
 70
     5
  0
LTYPE
  2
CONTINUOUS
 70
    64
  3
SOLID LINE
 72
    65
 73
     0
 40
0.0
  0
LTYPE
  2
DASHED
 70
    64
  3
-- -- -- -- -- --
 72
    65
 73
     2
 40
  0.75  
 49
  0.50  
 49
 -0.25  
  0
LTYPE
  2
DOT
 70
    64
  3
....................
 72
    65
 73
     2
 40
  0.25  
 49
  0.02  
 49
 -0.23  
  0
LTYPE
  2
CENTER
 70
    64
  3
-- . -- . -- . -- .
 72
    65
 73
    4
 40
  2.00  
 49
  1.25  
 49
 -0.25  
 49
  0.25  
 49
 -0.25  
  0
LTYPE
  2
PHANTOM
 70
    64
  3
-- .. -- .. -- ..
 72
    65
 73
    6
 40
  2.50  
 49
  1.25  
 49
 -0.25  
 49
  0.25  
 49
 -0.25  
 49
  0.25  
 49
 -0.25  
  0
ENDTAB
  0
TABLE
  2
LAYER
 70
     1
  0
LAYER
  2
0
 70
    64
 62
     3
  6
CONTINUOUS
  0
ENDTAB
  0
TABLE
  2
STYLE
 70
     2
  0
STYLE
  2
STANDARD
 70
    64
 40
0.0
 41
1.0
 50
0.0
 71
     0
 42
5.0
  3
ROMANS
  4
BIGFONT
  0
STYLE
  2
BIGFONT
 70
    64
 40
0.0
 41
1.0
 50
0.0
 71
     0
 42
5.0
  3
ROMANS
  4
BIGFONT
  0
ENDTAB
  0
TABLE
  2
VIEW
 70
     0
  0
ENDTAB
  0
TABLE
  2
UCS
 70
     0
  0
ENDTAB
  0
TABLE
  2
DWGMGR
 70
     0
  0
ENDTAB
  0
ENDSEC
  0
SECTION
  2
BLOCKS
  0
BLOCK
  8
0
  2
BLK0001
 70
    64
 10
        0.000000
 20
        0.000000
  0
TEXT
  8
0
 62
  2
 10
       31.092554
 20
     -125.357025
 30
        0.000000
 40
        3.340000
  1
２５０
 50
       90.000000
 41
        1.000000
 51
        0.000000
  7
BIGFONT
  0
LINE
  8
0
 62
  2
 10
       11.333516
 20
        5.000122
 30
        0.000000
 11
       32.959221
 21
        5.000122
 31
        0.000000
  0
LINE
  8
0
 62
  2
 10
       11.333516
 20
     -244.999893
 30
        0.000000
 11
       32.959221
 21
     -244.999893
 31
        0.000000
  0
LINE
  8
0
 62
  2
 10
       32.591373
 20
        1.400122
 30
        0.000000
 11
       32.025887
 21
        5.000122
 31
        0.000000
  0
LINE
  8
0
 62
  2
 10
       32.025887
 20
        5.000122
 30
        0.000000
 11
       31.460400
 21
        1.400122
 31
        0.000000
  0
LINE
  8
0
 62
  2
 10
       31.460400
 20
     -241.399887
 30
        0.000000
 11
       32.025887
 21
     -244.999893
 31
        0.000000
  0
LINE
  8
0
 62
  2
 10
       32.025887
 20
     -244.999893
 30
        0.000000
 11
       32.591373
 21
     -241.399887
 31
        0.000000
  0
LINE
  8
0
 62
  2
 10
       32.025887
 20
        5.000122
 30
        0.000000
 11
       32.025887
 21
     -244.999893
 31
        0.000000
  0
ENDBLK
  0
BLOCK
  8
0
  2
BLK0002
 70
    64
 10
        0.000000
 20
        0.000000
  0
TEXT
  8
0
 62
  2
 10
       12.192997
 20
     -259.100128
 30
        0.000000
 40
        3.340000
  1
１２
 50
        0.000000
 41
        1.000000
 51
        0.000000
  7
BIGFONT
  0
LINE
  8
0
 62
  2
 10
       10.000122
 20
     -246.333221
 30
        0.000000
 11
       10.000122
 21
     -260.966797
 31
        0.000000
  0
LINE
  8
0
 62
  2
 10
       21.100159
 20
     -224.875565
 30
        0.000000
 11
       21.100159
 21
     -260.966797
 31
        0.000000
  0
LINE
  8
0
 62
  2
 10
       13.600122
 20
     -259.467987
 30
        0.000000
 11
       10.000122
 21
     -260.033478
 31
        0.000000
  0
LINE
  8
0
 62
  2
 10
       10.000122
 20
     -260.033478
 30
        0.000000
 11
       13.600122
 21
     -260.598969
 31
        0.000000
  0
LINE
  8
0
 62
  2
 10
       17.500158
 20
     -260.598969
 30
        0.000000
 11
       21.100159
 21
     -260.033478
 31
        0.000000
  0
LINE
  8
0
 62
  2
 10
       21.100159
 20
     -260.033478
 30
        0.000000
 11
       17.500158
 21
     -259.467987
 31
        0.000000
  0
LINE
  8
0
 62
  2
 10
       10.000122
 20
     -260.033478
 30
        0.000000
 11
       21.100159
 21
     -260.033478
 31
        0.000000
  0
ENDBLK
  0
BLOCK
  8
0
  2
BLK0003
 70
    64
 10
        0.000000
 20
        0.000000
  0
TEXT
  8
0
 62
  2
 10
      104.793060
 20
     -269.100128
 30
        0.000000
 40
        3.340000
  1
９５
 50
        0.000000
 41
        1.000000
 51
        0.000000
  7
BIGFONT
  0
LINE
  8
0
 62
  2
 10
      155.000183
 20
     -246.333221
 30
        0.000000
 11
      155.000183
 21
     -270.966797
 31
        0.000000
  0
LINE
  8
0
 62
  2
 10
       61.300232
 20
     -209.073196
 30
        0.000000
 11
       61.300232
 21
     -270.966797
 31
        0.000000
  0
LINE
  8
0
 62
  2
 10
      151.400177
 20
     -270.598969
 30
        0.000000
 11
      155.000183
 21
     -270.033478
 31
        0.000000
  0
LINE
  8
0
 62
  2
 10
      155.000183
 20
     -270.033478
 30
        0.000000
 11
      151.400177
 21
     -269.467987
 31
        0.000000
  0
LINE
  8
0
 62
  2
 10
       64.900230
 20
     -269.467987
 30
        0.000000
 11
       61.300232
 21
     -270.033478
 31
        0.000000
  0
LINE
  8
0
 62
  2
 10
       61.300232
 20
     -270.033478
 30
        0.000000
 11
       64.900230
 21
     -270.598969
 31
        0.000000
  0
LINE
  8
0
 62
  2
 10
      155.000183
 20
     -270.033478
 30
        0.000000
 11
       61.300232
 21
     -270.033478
 31
        0.000000
  0
ENDBLK
  0
BLOCK
  8
0
  2
BLK0004
 70
    64
 10
        0.000000
 20
        0.000000
  0
TEXT
  8
0
 62
  2
 10
      111.643036
 20
     -259.100128
 30
        0.000000
 40
        3.340000
  1
８０
 50
        0.000000
 41
        1.000000
 51
        0.000000
  7
BIGFONT
  0
LINE
  8
0
 62
  2
 10
       75.000183
 20
     -236.333221
 30
        0.000000
 11
       75.000183
 21
     -260.966797
 31
        0.000000
  0
LINE
  8
0
 62
  2
 10
      155.000183
 20
     -246.333221
 30
        0.000000
 11
      155.000183
 21
     -260.966797
 31
        0.000000
  0
LINE
  8
0
 62
  2
 10
       78.600182
 20
     -259.467987
 30
        0.000000
 11
       75.000183
 21
     -260.033478
 31
        0.000000
  0
LINE
  8
0
 62
  2
 10
       75.000183
 20
     -260.033478
 30
        0.000000
 11
       78.600182
 21
     -260.598969
 31
        0.000000
  0
LINE
  8
0
 62
  2
 10
      151.400177
 20
     -260.598969
 30
        0.000000
 11
      155.000183
 21
     -260.033478
 31
        0.000000
  0
LINE
  8
0
 62
  2
 10
      155.000183
 20
     -260.033478
 30
        0.000000
 11
      151.400177
 21
     -259.467987
 31
        0.000000
  0
LINE
  8
0
 62
  2
 10
       75.000183
 20
     -260.033478
 30
        0.000000
 11
      155.000183
 21
     -260.033478
 31
        0.000000
  0
ENDBLK
  0
BLOCK
  8
0
  2
BLK0005
 70
    64
 10
        0.000000
 20
        0.000000
  0
TEXT
  8
0
 62
  2
 10
       -6.606964
 20
     -259.100128
 30
        0.000000
 40
        3.340000
  1
１８。５
 50
        0.000000
 41
        1.000000
 51
        0.000000
  7
BIGFONT
  0
LINE
  8
0
 62
  2
 10
       10.000183
 20
     -246.333221
 30
        0.000000
 11
       10.000183
 21
     -260.966797
 31
        0.000000
  0
LINE
  8
0
 62
  2
 10
       -8.499817
 20
     -246.333221
 30
        0.000000
 11
       -8.499817
 21
     -260.966797
 31
        0.000000
  0
LINE
  8
0
 62
  2
 10
        6.400183
 20
     -260.598969
 30
        0.000000
 11
       10.000183
 21
     -260.033478
 31
        0.000000
  0
LINE
  8
0
 62
  2
 10
       10.000183
 20
     -260.033478
 30
        0.000000
 11
        6.400183
 21
     -259.467987
 31
        0.000000
  0
LINE
  8
0
 62
  2
 10
       -4.899817
 20
     -259.467987
 30
        0.000000
 11
       -8.499817
 21
     -260.033478
 31
        0.000000
  0
LINE
  8
0
 62
  2
 10
       -8.499817
 20
     -260.033478
 30
        0.000000
 11
       -4.899817
 21
     -260.598969
 31
        0.000000
  0
LINE
  8
0
 62
  2
 10
       10.000183
 20
     -260.033478
 30
        0.000000
 11
       -8.499817
 21
     -260.033478
 31
        0.000000
  0
ENDBLK
  0
ENDSEC
  0
SECTION
  2
ENTITIES
  0
LINE
  8
0
 10
       96.800183
 20
       39.000122
 30
        0.000000
 11
       98.800183
 21
       39.000122
 31
        0.000000
  0
LINE
  8
0
 10
       96.800183
 20
       39.000122
 30
        0.000000
 11
       96.800183
 21
       26.000122
 31
        0.000000
  0
LINE
  8
0
 10
       96.800183
 20
       26.000122
 30
        0.000000
 11
       98.800183
 21
       26.000122
 31
        0.000000
  0
LINE
  8
0
 10
       98.800183
 20
       39.000122
 30
        0.000000
 11
       98.800183
 21
       26.000122
 31
        0.000000
  0
LINE
  8
0
 10
       94.800183
 20
       39.000122
 30
        0.000000
 11
       94.800183
 21
       26.000122
 31
        0.000000
  0
LINE
  8
0
 10
       92.800183
 20
       26.000122
 30
        0.000000
 11
       94.800183
 21
       26.000122
 31
        0.000000
  0
LINE
  8
0
 10
       92.800183
 20
       39.000122
 30
        0.000000
 11
       92.800183
 21
       26.000122
 31
        0.000000
  0
LINE
  8
0
 10
       92.800183
 20
       39.000122
 30
        0.000000
 11
       94.800183
 21
       39.000122
 31
        0.000000
  0
LINE
  8
0
 10
       88.800183
 20
       39.000122
 30
        0.000000
 11
       90.800183
 21
       39.000122
 31
        0.000000
  0
LINE
  8
0
 10
       88.800183
 20
       39.000122
 30
        0.000000
 11
       88.800183
 21
       26.000122
 31
        0.000000
  0
LINE
  8
0
 10
       88.800183
 20
       26.000122
 30
        0.000000
 11
       90.800183
 21
       26.000122
 31
        0.000000
  0
LINE
  8
0
 10
       90.800183
 20
       39.000122
 30
        0.000000
 11
       90.800183
 21
       26.000122
 31
        0.000000
  0
LINE
  8
0
 10
       86.800183
 20
       39.000122
 30
        0.000000
 11
       86.800183
 21
       26.000122
 31
        0.000000
  0
LINE
  8
0
 10
       84.800183
 20
       26.000122
 30
        0.000000
 11
       86.800183
 21
       26.000122
 31
        0.000000
  0
LINE
  8
0
 10
       84.800183
 20
       39.000122
 30
        0.000000
 11
       84.800183
 21
       26.000122
 31
        0.000000
  0
LINE
  8
0
 10
       84.800183
 20
       39.000122
 30
        0.000000
 11
       86.800183
 21
       39.000122
 31
        0.000000
  0
INSERT
  8
0
 62
  5
  2
BLK0001
 10
        0.000000
 20
        0.000000
  0
INSERT
  8
0
 62
  5
  2
BLK0002
 10
        0.000000
 20
        0.000000
  0
INSERT
  8
0
 62
  5
  2
BLK0003
 10
        0.000000
 20
        0.000000
  0
INSERT
  8
0
 62
  5
  2
BLK0004
 10
        0.000000
 20
        0.000000
  0
INSERT
  8
0
 62
  5
  2
BLK0005
 10
        0.000000
 20
        0.000000
  0
TEXT
  8
0
 62
  2
 10
       -9.235811
 20
       32.892276
 30
        0.000000
 40
        4.175000
  1
ＪＷ２ＥＡ
 50
        0.000000
 41
        1.000000
 51
        0.000000
  7
BIGFONT
  0
LINE
  8
0
 10
      129.065125
 20
     -216.142349
 30
        0.000000
 11
       90.935242
 21
     -216.142349
 31
        0.000000
  0
LINE
  8
0
 10
      129.065125
 20
     -222.742447
 30
        0.000000
 11
       90.935242
 21
     -222.742447
 31
        0.000000
  0
LINE
  8
0
 10
       90.935242
 20
     -216.142349
 30
        0.000000
 11
       90.935242
 21
     -223.142349
 31
        0.000000
  0
LINE
  8
0
 10
      129.065125
 20
     -216.142349
 30
        0.000000
 11
      129.065125
 21
     -223.142349
 31
        0.000000
  0
LINE
  8
0
 10
      129.065125
 20
     -223.142349
 30
        0.000000
 11
      124.265076
 21
     -223.142349
 31
        0.000000
  0
CIRCLE
  8
0
 10
      126.510193
 20
     -219.442398
 30
        0.000000
 40
        1.150024
  0
CIRCLE
  8
0
 10
       93.490173
 20
     -219.442398
 30
        0.000000
 40
        1.150024
  0
LINE
  8
0
 10
       95.735291
 20
     -223.142349
 30
        0.000000
 11
       90.935242
 21
     -223.142349
 31
        0.000000
  0
LINE
  8
0
 10
       95.735291
 20
     -222.742447
 30
        0.000000
 11
       95.735291
 21
     -223.142349
 31
        0.000000
  0
LINE
  8
0
 10
      124.265076
 20
     -222.742447
 30
        0.000000
 11
      124.265076
 21
     -223.142349
 31
        0.000000
  0
LINE
  8
0
 10
       94.735291
 20
     -216.142349
 30
        0.000000
 11
       94.735291
 21
     -222.742447
 31
        0.000000
  0
LINE
  8
0
 10
      125.265076
 20
     -216.142349
 30
        0.000000
 11
      125.265076
 21
     -222.742447
 31
        0.000000
  0
LINE
  8
0
 10
        3.100220
 20
     -212.239883
 30
        0.000000
 11
        3.100220
 21
     -167.759888
 31
        0.000000
  0
LINE
  8
0
 10
       -3.499878
 20
     -212.239883
 30
        0.000000
 11
       -3.499878
 21
     -167.759888
 31
        0.000000
  0
LINE
  8
0
 10
        3.100220
 20
     -167.759888
 30
        0.000000
 11
       -3.899780
 21
     -167.759888
 31
        0.000000
  0
LINE
  8
0
 10
        3.100220
 20
     -212.239883
 30
        0.000000
 11
       -3.899780
 21
     -212.239883
 31
        0.000000
  0
LINE
  8
0
 10
       -3.899780
 20
     -212.239883
 30
        0.000000
 11
       -3.899780
 21
     -207.439835
 31
        0.000000
  0
CIRCLE
  8
0
 10
       -0.199829
 20
     -209.684952
 30
        0.000000
 40
        1.150024
  0
CIRCLE
  8
0
 10
       -0.199829
 20
     -170.314819
 30
        0.000000
 40
        1.150024
  0
LINE
  8
0
 10
       -3.899780
 20
     -172.559937
 30
        0.000000
 11
       -3.899780
 21
     -167.759888
 31
        0.000000
  0
LINE
  8
0
 10
       -3.499878
 20
     -172.559937
 30
        0.000000
 11
       -3.899780
 21
     -172.559937
 31
        0.000000
  0
LINE
  8
0
 10
       -3.499878
 20
     -207.439835
 30
        0.000000
 11
       -3.899780
 21
     -207.439835
 31
        0.000000
  0
LINE
  8
0
 10
        3.100220
 20
     -171.559937
 30
        0.000000
 11
       -3.499878
 21
     -171.559937
 31
        0.000000
  0
LINE
  8
0
 10
        3.100220
 20
     -208.439835
 30
        0.000000
 11
       -3.499878
 21
     -208.439835
 31
        0.000000
  0
LINE
  8
0
 10
        3.100220
 20
      -72.239868
 30
        0.000000
 11
        3.100220
 21
      -27.759888
 31
        0.000000
  0
LINE
  8
0
 10
       -3.499878
 20
      -72.239868
 30
        0.000000
 11
       -3.499878
 21
      -27.759888
 31
        0.000000
  0
LINE
  8
0
 10
        3.100220
 20
      -27.759888
 30
        0.000000
 11
       -3.899780
 21
      -27.759888
 31
        0.000000
  0
LINE
  8
0
 10
        3.100220
 20
      -72.239868
 30
        0.000000
 11
       -3.899780
 21
      -72.239868
 31
        0.000000
  0
LINE
  8
0
 10
       -3.899780
 20
      -72.239868
 30
        0.000000
 11
       -3.899780
 21
      -67.439819
 31
        0.000000
  0
CIRCLE
  8
0
 10
       -0.199829
 20
      -69.684937
 30
        0.000000
 40
        1.150024
  0
CIRCLE
  8
0
 10
       -0.199829
 20
      -30.314819
 30
        0.000000
 40
        1.150024
  0
LINE
  8
0
 10
       -3.899780
 20
      -32.559937
 30
        0.000000
 11
       -3.899780
 21
      -27.759888
 31
        0.000000
  0
LINE
  8
0
 10
       -3.499878
 20
      -32.559937
 30
        0.000000
 11
       -3.899780
 21
      -32.559937
 31
        0.000000
  0
LINE
  8
0
 10
       -3.499878
 20
      -67.439819
 30
        0.000000
 11
       -3.899780
 21
      -67.439819
 31
        0.000000
  0
LINE
  8
0
 10
        3.100220
 20
      -31.559937
 30
        0.000000
 11
       -3.499878
 21
      -31.559937
 31
        0.000000
  0
LINE
  8
0
 10
        3.100220
 20
      -68.439819
 30
        0.000000
 11
       -3.499878
 21
      -68.439819
 31
        0.000000
  0
LINE
  8
0
 10
        8.700073
 20
     -146.499878
 30
        0.000000
 11
        8.700073
 21
     -142.799927
 31
        0.000000
  0
LINE
  8
0
 10
       -3.899780
 20
     -146.499878
 30
        0.000000
 11
       -3.899780
 21
     -142.799927
 31
        0.000000
  0
LINE
  8
0
 10
       -3.899780
 20
     -146.499878
 30
        0.000000
 11
       -3.749878
 21
     -146.499878
 31
        0.000000
  0
LINE
  8
0
 10
       -3.899780
 20
      -93.499878
 30
        0.000000
 11
       -3.749878
 21
      -93.499878
 31
        0.000000
  0
LINE
  8
0
 10
       -3.749878
 20
     -151.399780
 30
        0.000000
 11
       -0.049927
 21
     -151.399780
 31
        0.000000
  0
LINE
  8
0
 10
       -4.849731
 20
     -135.799927
 30
        0.000000
 11
       -2.599731
 21
     -135.799927
 31
        0.000000
  0
LINE
  8
0
 10
       -4.849731
 20
     -142.799927
 30
        0.000000
 11
       -3.749878
 21
     -142.799927
 31
        0.000000
  0
LINE
  8
0
 10
        9.650269
 20
     -142.799927
 30
        0.000000
 11
        9.650269
 21
     -135.799927
 31
        0.000000
  0
LINE
  8
0
 10
       -4.849731
 20
     -142.799927
 30
        0.000000
 11
       -4.849731
 21
     -135.799927
 31
        0.000000
  0
LINE
  8
0
 10
        8.550171
 20
     -151.399780
 30
        0.000000
 11
        8.550171
 21
     -142.799927
 31
        0.000000
  0
LINE
  8
0
 10
       -3.749878
 20
     -151.399780
 30
        0.000000
 11
       -3.749878
 21
     -142.799927
 31
        0.000000
  0
LINE
  8
0
 10
        8.550171
 20
     -142.799927
 30
        0.000000
 11
        9.650269
 21
     -142.799927
 31
        0.000000
  0
LINE
  8
0
 10
        7.400269
 20
     -138.299927
 30
        0.000000
 11
        7.400269
 21
     -135.799927
 31
        0.000000
  0
LINE
  8
0
 10
       -2.599731
 20
     -138.299927
 30
        0.000000
 11
       -2.599731
 21
     -135.799927
 31
        0.000000
  0
LINE
  8
0
 10
       -0.599731
 20
     -140.299927
 30
        0.000000
 11
        5.400269
 21
     -140.299927
 31
        0.000000
  0
ARC
  8
0
 10
        5.400269
 20
     -138.299927
 30
        0.000000
 40
        2.000000
 50
      270.000000
 51
      360.000000
  0
ARC
  8
0
 10
       -0.599731
 20
     -138.299927
 30
        0.000000
 40
        2.000000
 50
      180.000015
 51
      270.000000
  0
LINE
  8
0
 10
        7.400269
 20
     -135.799927
 30
        0.000000
 11
        9.650269
 21
     -135.799927
 31
        0.000000
  0
LINE
  8
0
 10
        4.000122
 20
     -150.399780
 30
        0.000000
 11
        4.000122
 21
     -146.799927
 31
        0.000000
  0
LINE
  8
0
 10
        0.800171
 20
     -150.399780
 30
        0.000000
 11
        0.800171
 21
     -146.799927
 31
        0.000000
  0
LINE
  8
0
 10
       -3.749878
 20
     -148.399780
 30
        0.000000
 11
       -0.049927
 21
     -148.399780
 31
        0.000000
  0
LINE
  8
0
 10
        4.850220
 20
     -151.399780
 30
        0.000000
 11
        4.850220
 21
     -146.799927
 31
        0.000000
  0
LINE
  8
0
 10
       -0.049927
 20
     -151.399780
 30
        0.000000
 11
       -0.049927
 21
     -146.799927
 31
        0.000000
  0
LINE
  8
0
 10
        4.850220
 20
     -148.399780
 30
        0.000000
 11
        8.550171
 21
     -148.399780
 31
        0.000000
  0
LINE
  8
0
 10
        0.800171
 20
     -150.399780
 30
        0.000000
 11
        4.000122
 21
     -150.399780
 31
        0.000000
  0
LINE
  8
0
 10
        4.850220
 20
     -151.399780
 30
        0.000000
 11
        8.550171
 21
     -151.399780
 31
        0.000000
  0
LINE
  8
0
 10
       -0.049927
 20
     -146.799927
 30
        0.000000
 11
        0.800171
 21
     -146.799927
 31
        0.000000
  0
LINE
  8
0
 10
        4.000122
 20
     -146.799927
 30
        0.000000
 11
        4.850220
 21
     -146.799927
 31
        0.000000
  0
LINE
  8
0
 10
        4.400269
 20
     -151.899780
 30
        0.000000
 11
        4.400269
 21
     -150.399780
 31
        0.000000
  0
LINE
  8
0
 10
        0.400269
 20
     -151.899780
 30
        0.000000
 11
        0.400269
 21
     -150.399780
 31
        0.000000
  0
LINE
  8
0
 10
        3.400269
 20
     -151.899780
 30
        0.000000
 11
        3.400269
 21
     -150.399780
 31
        0.000000
  0
LINE
  8
0
 10
        1.400269
 20
     -151.899780
 30
        0.000000
 11
        1.400269
 21
     -150.399780
 31
        0.000000
  0
LINE
  8
0
 10
       -0.049927
 20
     -150.399780
 30
        0.000000
 11
        0.400269
 21
     -150.399780
 31
        0.000000
  0
LINE
  8
0
 10
       -0.049927
 20
     -149.399780
 30
        0.000000
 11
        0.400269
 21
     -149.399780
 31
        0.000000
  0
LINE
  8
0
 10
        4.400269
 20
     -150.399780
 30
        0.000000
 11
        4.850220
 21
     -150.399780
 31
        0.000000
  0
LINE
  8
0
 10
        4.400269
 20
     -149.399780
 30
        0.000000
 11
        4.850220
 21
     -149.399780
 31
        0.000000
  0
ARC
  8
0
 10
        4.400269
 20
     -150.399780
 30
        0.000000
 40
        1.000000
 50
       90.000000
 51
      113.587522
  0
ARC
  8
0
 10
        0.400269
 20
     -150.399780
 30
        0.000000
 40
        1.000007
 50
       66.428087
 51
       90.000000
  0
ARC
  8
0
 10
        0.400269
 20
     -151.899780
 30
        0.000000
 40
        0.999812
 50
      331.501211
 51
      360.000000
  0
ARC
  8
0
 10
        4.400269
 20
     -151.899780
 30
        0.000000
 40
        1.000000
 50
      180.000015
 51
      208.495344
  0
LINE
  8
0
 10
       -3.749878
 20
      -88.599731
 30
        0.000000
 11
       -0.049927
 21
      -88.599731
 31
        0.000000
  0
LINE
  8
0
 10
       -4.849731
 20
     -104.199829
 30
        0.000000
 11
       -2.599731
 21
     -104.199829
 31
        0.000000
  0
LINE
  8
0
 10
       -4.849731
 20
      -97.199829
 30
        0.000000
 11
       -3.749878
 21
      -97.199829
 31
        0.000000
  0
LINE
  8
0
 10
        9.650269
 20
      -97.199829
 30
        0.000000
 11
        9.650269
 21
     -104.199829
 31
        0.000000
  0
LINE
  8
0
 10
       -4.849731
 20
      -97.199829
 30
        0.000000
 11
       -4.849731
 21
     -104.199829
 31
        0.000000
  0
LINE
  8
0
 10
        8.550171
 20
      -88.599731
 30
        0.000000
 11
        8.550171
 21
      -97.199829
 31
        0.000000
  0
LINE
  8
0
 10
       -3.749878
 20
      -88.599731
 30
        0.000000
 11
       -3.749878
 21
      -97.199829
 31
        0.000000
  0
LINE
  8
0
 10
        8.550171
 20
      -97.199829
 30
        0.000000
 11
        9.650269
 21
      -97.199829
 31
        0.000000
  0
LINE
  8
0
 10
        7.400269
 20
     -101.699829
 30
        0.000000
 11
        7.400269
 21
     -104.199829
 31
        0.000000
  0
LINE
  8
0
 10
       -2.599731
 20
     -101.699829
 30
        0.000000
 11
       -2.599731
 21
     -104.199829
 31
        0.000000
  0
LINE
  8
0
 10
       -0.599731
 20
      -99.699829
 30
        0.000000
 11
        5.400269
 21
      -99.699829
 31
        0.000000
  0
ARC
  8
0
 10
        5.400269
 20
     -101.699829
 30
        0.000000
 40
        2.000000
 50
        0.000000
 51
       90.000000
  0
ARC
  8
0
 10
       -0.599731
 20
     -101.699829
 30
        0.000000
 40
        2.000000
 50
       90.000000
 51
      180.000015
  0
LINE
  8
0
 10
        7.400269
 20
     -104.199829
 30
        0.000000
 11
        9.650269
 21
     -104.199829
 31
        0.000000
  0
LINE
  8
0
 10
        4.000122
 20
      -89.599731
 30
        0.000000
 11
        4.000122
 21
      -93.199829
 31
        0.000000
  0
LINE
  8
0
 10
        0.800171
 20
      -89.599731
 30
        0.000000
 11
        0.800171
 21
      -93.199829
 31
        0.000000
  0
LINE
  8
0
 10
       -3.749878
 20
      -91.599731
 30
        0.000000
 11
       -0.049927
 21
      -91.599731
 31
        0.000000
  0
LINE
  8
0
 10
        4.850220
 20
      -88.599731
 30
        0.000000
 11
        4.850220
 21
      -93.199829
 31
        0.000000
  0
LINE
  8
0
 10
       -0.049927
 20
      -88.599731
 30
        0.000000
 11
       -0.049927
 21
      -93.199829
 31
        0.000000
  0
LINE
  8
0
 10
        4.850220
 20
      -91.599731
 30
        0.000000
 11
        8.550171
 21
      -91.599731
 31
        0.000000
  0
LINE
  8
0
 10
        0.800171
 20
      -89.599731
 30
        0.000000
 11
        4.000122
 21
      -89.599731
 31
        0.000000
  0
LINE
  8
0
 10
        4.850220
 20
      -88.599731
 30
        0.000000
 11
        8.550171
 21
      -88.599731
 31
        0.000000
  0
LINE
  8
0
 10
       -0.049927
 20
      -93.199829
 30
        0.000000
 11
        0.800171
 21
      -93.199829
 31
        0.000000
  0
LINE
  8
0
 10
        4.000122
 20
      -93.199829
 30
        0.000000
 11
        4.850220
 21
      -93.199829
 31
        0.000000
  0
LINE
  8
0
 10
        4.400269
 20
      -88.099731
 30
        0.000000
 11
        4.400269
 21
      -89.599731
 31
        0.000000
  0
LINE
  8
0
 10
        0.400269
 20
      -88.099731
 30
        0.000000
 11
        0.400269
 21
      -89.599731
 31
        0.000000
  0
LINE
  8
0
 10
        3.400269
 20
      -88.099731
 30
        0.000000
 11
        3.400269
 21
      -89.599731
 31
        0.000000
  0
LINE
  8
0
 10
        1.400269
 20
      -88.099731
 30
        0.000000
 11
        1.400269
 21
      -89.599731
 31
        0.000000
  0
LINE
  8
0
 10
       -0.049927
 20
      -89.599731
 30
        0.000000
 11
        0.400269
 21
      -89.599731
 31
        0.000000
  0
LINE
  8
0
 10
       -0.049927
 20
      -90.599731
 30
        0.000000
 11
        0.400269
 21
      -90.599731
 31
        0.000000
  0
LINE
  8
0
 10
        4.400269
 20
      -89.599731
 30
        0.000000
 11
        4.850220
 21
      -89.599731
 31
        0.000000
  0
LINE
  8
0
 10
        4.400269
 20
      -90.599731
 30
        0.000000
 11
        4.850220
 21
      -90.599731
 31
        0.000000
  0
ARC
  8
0
 10
        4.400269
 20
      -89.599731
 30
        0.000000
 40
        0.999992
 50
      246.412495
 51
      296.741015
  0
ARC
  8
0
 10
        0.400269
 20
      -89.599731
 30
        0.000000
 40
        1.000000
 50
      270.000000
 51
      293.571916
  0
LINE
  8
0
 10
        6.880981
 20
      -83.532349
 30
        0.000000
 11
        4.400269
 21
      -88.099731
 31
        0.000000
  0
LINE
  8
0
 10
       -2.080444
 20
      -83.532349
 30
        0.000000
 11
        0.400269
 21
      -88.099731
 31
        0.000000
  0
LINE
  8
0
 10
        6.002075
 20
      -83.055054
 30
        0.000000
 11
        3.521362
 21
      -87.622681
 31
        0.000000
  0
LINE
  8
0
 10
       -1.201782
 20
      -83.055054
 30
        0.000000
 11
        1.278931
 21
      -87.622681
 31
        0.000000
  0
ARC
  8
0
 10
        0.400269
 20
      -88.099731
 30
        0.000000
 40
        1.000000
 50
        0.000000
 51
       28.504681
  0
ARC
  8
0
 10
        4.400269
 20
      -88.099731
 30
        0.000000
 40
        1.000143
 50
      151.495568
 51
      180.000015
  0
LINE
  8
0
 10
        6.310181
 20
     -137.549927
 30
        0.000000
 11
        6.310181
 21
     -102.449829
 31
        0.000000
  0
LINE
  8
0
 10
       -1.509888
 20
     -136.710571
 30
        0.000000
 11
       -1.509888
 21
     -103.289185
 31
        0.000000
  0
ARC
  8
0
 10
        4.710083
 20
     -137.549927
 30
        0.000000
 40
        1.599854
 50
      270.000000
 51
      360.000000
  0
ARC
  8
0
 10
        4.710083
 20
     -102.449829
 30
        0.000000
 40
        1.600098
 50
        0.000000
 51
       90.000000
  0
LINE
  8
0
 10
        4.710083
 20
     -139.150024
 30
        0.000000
 11
       -0.187622
 21
     -138.286255
 31
        0.000000
  0
LINE
  8
0
 10
        4.710083
 20
     -100.849731
 30
        0.000000
 11
       -0.187622
 21
     -101.713501
 31
        0.000000
  0
ARC
  8
0
 10
        0.090210
 20
     -103.289185
 30
        0.000000
 40
        1.599990
 50
       99.999872
 51
      180.000015
  0
ARC
  8
0
 10
        0.090210
 20
     -136.710571
 30
        0.000000
 40
        1.600098
 50
      180.000015
 51
      260.000910
  0
LINE
  8
0
 10
       77.100281
 20
     -149.899780
 30
        0.000000
 11
       77.100281
 21
     -142.799927
 31
        0.000000
  0
LINE
  8
0
 10
       71.000122
 20
     -139.505005
 30
        0.000000
 11
       76.300232
 21
     -139.505005
 31
        0.000000
  0
LINE
  8
0
 10
       71.000122
 20
     -100.494751
 30
        0.000000
 11
       76.300232
 21
     -100.494751
 31
        0.000000
  0
LINE
  8
0
 10
       71.000122
 20
     -139.505005
 30
        0.000000
 11
       71.000122
 21
     -100.494751
 31
        0.000000
  0
LINE
  8
0
 10
       77.100281
 20
     -146.499878
 30
        0.000000
 11
       79.000183
 21
     -146.499878
 31
        0.000000
  0
LINE
  8
0
 10
       77.100281
 20
      -93.499878
 30
        0.000000
 11
       79.000183
 21
      -93.499878
 31
        0.000000
  0
LINE
  8
0
 10
       76.300232
 20
     -148.573364
 30
        0.000000
 11
       76.300232
 21
     -135.799927
 31
        0.000000
  0
LINE
  8
0
 10
       78.300232
 20
     -142.799927
 30
        0.000000
 11
       78.300232
 21
     -135.799927
 31
        0.000000
  0
LINE
  8
0
 10
       76.300232
 20
     -135.799927
 30
        0.000000
 11
       78.300232
 21
     -135.799927
 31
        0.000000
  0
LINE
  8
0
 10
       76.300232
 20
     -104.199829
 30
        0.000000
 11
       78.300232
 21
     -104.199829
 31
        0.000000
  0
LINE
  8
0
 10
       76.300232
 20
     -142.799927
 30
        0.000000
 11
       78.300232
 21
     -142.799927
 31
        0.000000
  0
LINE
  8
0
 10
       76.300232
 20
      -97.199829
 30
        0.000000
 11
       78.300232
 21
      -97.199829
 31
        0.000000
  0
CIRCLE
  8
0
 10
       75.600281
 20
     -149.899780
 30
        0.000000
 40
        1.500000
  0
CIRCLE
  8
0
 10
       75.600281
 20
      -90.099731
 30
        0.000000
 40
        1.500000
  0
LINE
  8
0
 10
       78.300232
 20
     -104.199829
 30
        0.000000
 11
       78.300232
 21
      -97.199829
 31
        0.000000
  0
LINE
  8
0
 10
       76.300232
 20
     -104.199829
 30
        0.000000
 11
       76.300232
 21
      -91.426392
 31
        0.000000
  0
LINE
  8
0
 10
       72.900146
 20
     -163.499878
 30
        0.000000
 11
       72.900146
 21
     -152.399780
 31
        0.000000
  0
LINE
  8
0
 10
       73.900146
 20
     -163.499878
 30
        0.000000
 11
       73.900146
 21
     -152.399780
 31
        0.000000
  0
CIRCLE
  8
0
 10
       75.600281
 20
     -149.899780
 30
        0.000000
 40
        0.500000
  0
LINE
  8
0
 10
       74.983826
 20
     -151.267273
 30
        0.000000
 11
       73.900146
 21
     -152.399780
 31
        0.000000
  0
LINE
  8
0
 10
       74.261292
 20
     -150.575989
 30
        0.000000
 11
       73.177612
 21
     -151.708618
 31
        0.000000
  0
ARC
  8
0
 10
       73.900146
 20
     -152.399780
 30
        0.000000
 40
        0.999880
 50
      136.271268
 51
      180.000015
  0
LINE
  8
0
 10
       74.261292
 20
      -89.423645
 30
        0.000000
 11
       73.177612
 21
      -88.291138
 31
        0.000000
  0
ARC
  8
0
 10
       73.900146
 20
      -87.599731
 30
        0.000000
 40
        1.000000
 50
      180.000015
 51
      223.740011
  0
LINE
  8
0
 10
       72.900146
 20
      -76.499878
 30
        0.000000
 11
       72.900146
 21
      -87.599731
 31
        0.000000
  0
LINE
  8
0
 10
       73.900146
 20
      -76.499878
 30
        0.000000
 11
       73.900146
 21
      -87.599731
 31
        0.000000
  0
LINE
  8
0
 10
       74.983826
 20
      -88.732300
 30
        0.000000
 11
       73.900146
 21
      -87.599731
 31
        0.000000
  0
CIRCLE
  8
0
 10
       75.600281
 20
      -90.099731
 30
        0.000000
 40
        0.500000
  0
LINE
  8
0
 10
       75.000183
 20
       -4.999878
 30
        0.000000
 11
       75.000183
 21
      -86.999878
 31
        0.000000
  0
LINE
  8
0
 10
      155.000183
 20
        5.000122
 30
        0.000000
 11
      155.000183
 21
      -36.999878
 31
        0.000000
  0
LINE
  8
0
 10
       -3.899780
 20
      -25.999878
 30
        0.000000
 11
       -3.899780
 21
      -73.999878
 31
        0.000000
  0
LINE
  8
0
 10
       10.000122
 20
        5.000122
 30
        0.000000
 11
       10.000122
 21
     -244.999893
 31
        0.000000
  0
LINE
  8
0
 10
       -8.499878
 20
        5.000122
 30
        0.000000
 11
       -8.499878
 21
     -244.999893
 31
        0.000000
  0
LINE
  8
0
 10
       10.000122
 20
     -152.999878
 30
        0.000000
 11
        4.997681
 21
     -152.999878
 31
        0.000000
  0
LINE
  8
0
 10
       10.000122
 20
      -86.999878
 30
        0.000000
 11
        4.997681
 21
      -86.999878
 31
        0.000000
  0
LINE
  8
0
 10
       -7.499756
 20
     -152.999878
 30
        0.000000
 11
       -7.499756
 21
      -86.999878
 31
        0.000000
  0
LINE
  8
0
 10
       -4.999878
 20
      -25.999878
 30
        0.000000
 11
        4.500122
 21
      -25.999878
 31
        0.000000
  0
LINE
  8
0
 10
        4.500122
 20
      -25.999878
 30
        0.000000
 11
        4.500122
 21
      -73.999878
 31
        0.000000
  0
LINE
  8
0
 10
       -4.999878
 20
      -25.999878
 30
        0.000000
 11
       -4.999878
 21
      -73.999878
 31
        0.000000
  0
LINE
  8
0
 10
        9.000122
 20
      -86.999878
 30
        0.000000
 11
        9.000122
 21
      -97.199829
 31
        0.000000
  0
LINE
  8
0
 10
       75.000183
 20
     -152.999878
 30
        0.000000
 11
       79.000183
 21
     -152.999878
 31
        0.000000
  0
LINE
  8
0
 10
       75.000183
 20
      -86.999878
 30
        0.000000
 11
       79.000183
 21
      -86.999878
 31
        0.000000
  0
LINE
  8
0
 10
       -4.999878
 20
      -73.999878
 30
        0.000000
 11
        4.500122
 21
      -73.999878
 31
        0.000000
  0
LINE
  8
0
 10
      152.500183
 20
      -36.999878
 30
        0.000000
 11
      152.500183
 21
     -126.999878
 31
        0.000000
  0
LINE
  8
0
 10
      155.000183
 20
      -36.999878
 30
        0.000000
 11
      152.500183
 21
      -36.999878
 31
        0.000000
  0
LINE
  8
0
 10
      155.000183
 20
     -126.999878
 30
        0.000000
 11
      152.500183
 21
     -126.999878
 31
        0.000000
  0
LINE
  8
0
 10
      155.000183
 20
     -126.999878
 30
        0.000000
 11
      155.000183
 21
     -244.999893
 31
        0.000000
  0
LINE
  8
0
 10
       75.000183
 20
     -152.999878
 30
        0.000000
 11
       75.000183
 21
     -234.999893
 31
        0.000000
  0
LINE
  8
0
 10
       75.000183
 20
       -4.999878
 30
        0.000000
 11
      145.000183
 21
       -4.999878
 31
        0.000000
  0
LINE
  8
0
 10
      145.000183
 20
     -234.999893
 30
        0.000000
 11
       75.000183
 21
     -234.999893
 31
        0.000000
  0
CIRCLE
  8
0
 10
        1.100220
 20
     -222.999893
 30
        0.000000
 40
        5.000000
  0
LINE
  8
0
 10
      145.000183
 20
        5.000122
 30
        0.000000
 11
      155.000183
 21
        5.000122
 31
        0.000000
  0
LINE
  8
0
 10
      155.000183
 20
     -244.999893
 30
        0.000000
 11
      145.000183
 21
     -244.999893
 31
        0.000000
  0
LINE
  8
0
 10
       79.000183
 20
      -86.999878
 30
        0.000000
 11
       79.000183
 21
     -152.999878
 31
        0.000000
  0
LINE
  8
0
 10
      145.000183
 20
     -234.999893
 30
        0.000000
 11
      145.000183
 21
     -244.999893
 31
        0.000000
  0
LINE
  8
0
 10
       -8.499878
 20
       -4.999878
 30
        0.000000
 11
       10.000122
 21
       -4.999878
 31
        0.000000
  0
LINE
  8
0
 10
       -8.499878
 20
        5.000122
 30
        0.000000
 11
       10.000122
 21
        5.000122
 31
        0.000000
  0
LINE
  8
0
 10
       -7.499878
 20
       -4.999878
 30
        0.000000
 11
       -7.499878
 21
        5.000122
 31
        0.000000
  0
LINE
  8
0
 10
        9.000122
 20
       -4.999878
 30
        0.000000
 11
        9.000122
 21
        5.000122
 31
        0.000000
  0
LINE
  8
0
 10
       10.000122
 20
     -244.999893
 30
        0.000000
 11
       -8.499878
 21
     -244.999893
 31
        0.000000
  0
LINE
  8
0
 10
       -8.499878
 20
     -234.999893
 30
        0.000000
 11
        9.000122
 21
     -234.999893
 31
        0.000000
  0
LINE
  8
0
 10
        9.000122
 20
     -234.999893
 30
        0.000000
 11
       10.000122
 21
     -234.999893
 31
        0.000000
  0
LINE
  8
0
 10
        9.000122
 20
     -244.999893
 30
        0.000000
 11
        9.000122
 21
     -234.999893
 31
        0.000000
  0
LINE
  8
0
 10
       -7.499878
 20
     -244.999893
 30
        0.000000
 11
       -7.499878
 21
     -234.999893
 31
        0.000000
  0
LINE
  8
0
 10
      145.000183
 20
        5.000122
 30
        0.000000
 11
      145.000183
 21
       -4.999878
 31
        0.000000
  0
CIRCLE
  8
0
 10
       93.490173
 20
     -219.442398
 30
        0.000000
 40
        1.150146
  0
CIRCLE
  8
0
 10
      126.510193
 20
     -219.442398
 30
        0.000000
 40
        1.150146
  0
ARC
  8
0
 10
        2.400269
 20
      -81.098755
 30
        0.000000
 40
        4.098794
 50
      331.491704
 51
      568.508335
  0
ARC
  8
0
 10
        2.400269
 20
      -81.098755
 30
        0.000000
 40
        5.098821
 50
      331.494873
 51
      568.507625
  0
LINE
  8
0
 10
        6.880981
 20
     -156.467407
 30
        0.000000
 11
        4.400269
 21
     -151.899780
 31
        0.000000
  0
LINE
  8
0
 10
       -2.080444
 20
     -156.467407
 30
        0.000000
 11
        0.400269
 21
     -151.899780
 31
        0.000000
  0
LINE
  8
0
 10
        6.002075
 20
     -156.944702
 30
        0.000000
 11
        3.521362
 21
     -152.377075
 31
        0.000000
  0
LINE
  8
0
 10
       -1.201782
 20
     -156.944702
 30
        0.000000
 11
        1.278931
 21
     -152.377075
 31
        0.000000
  0
ARC
  8
0
 10
        2.400269
 20
     -158.901001
 30
        0.000000
 40
        4.099009
 50
      151.493301
 51
      388.506691
  0
ARC
  8
0
 10
        2.400269
 20
     -158.901001
 30
        0.000000
 40
        5.098938
 50
      151.492440
 51
      388.507555
  0
ARC
  8
0
 10
       73.400146
 20
      -76.499878
 30
        0.000000
 40
        0.500000
 50
        0.000000
 51
      180.000015
  0
ARC
  8
0
 10
       73.400146
 20
     -163.499878
 30
        0.000000
 40
        0.500000
 50
      180.000015
 51
      360.000000
  0
CIRCLE
  8
0
 10
       -0.399780
 20
      -19.999878
 30
        0.000000
 40
        1.500000
  0
CIRCLE
  8
0
 10
       -0.399780
 20
      -19.999878
 30
        0.000000
 40
        2.000000
  0
LINE
  8
0
 10
      145.000183
 20
     -243.499893
 30
        0.000000
 11
      145.000183
 21
     -236.499893
 31
        0.000000
  0
LINE
  8
0
 10
      158.400330
 20
     -238.399796
 30
        0.000000
 11
      155.000183
 21
     -238.399796
 31
        0.000000
  0
LINE
  8
0
 10
      158.400330
 20
     -241.599747
 30
        0.000000
 11
      155.000183
 21
     -241.599747
 31
        0.000000
  0
LINE
  8
0
 10
      158.000183
 20
     -237.999893
 30
        0.000000
 11
      155.000183
 21
     -237.999893
 31
        0.000000
  0
LINE
  8
0
 10
      158.000183
 20
     -241.999893
 30
        0.000000
 11
      155.000183
 21
     -241.999893
 31
        0.000000
  0
LINE
  8
0
 10
      160.000183
 20
     -239.999893
 30
        0.000000
 11
      158.000183
 21
     -237.999893
 31
        0.000000
  0
LINE
  8
0
 10
      160.000183
 20
     -239.999893
 30
        0.000000
 11
      158.000183
 21
     -241.999893
 31
        0.000000
  0
LINE
  8
0
 10
      158.000183
 20
     -237.999893
 30
        0.000000
 11
      158.000183
 21
     -241.999893
 31
        0.000000
  0
LINE
  8
0
 10
      145.000183
 20
     -236.499893
 30
        0.000000
 11
      144.021179
 21
     -236.499893
 31
        0.000000
  0
LINE
  8
0
 10
      145.000183
 20
     -243.499893
 30
        0.000000
 11
      144.021179
 21
     -243.499893
 31
        0.000000
  0
ARC
  8
0
 10
      151.400330
 20
     -239.999893
 30
        0.000000
 40
        9.000003
 50
      163.399371
 51
      196.601295
  0
ARC
  8
0
 10
      144.021179
 20
     -237.799942
 30
        0.000000
 40
        1.299805
 50
       90.000000
 51
      163.391967
  0
ARC
  8
0
 10
      144.021179
 20
     -242.199844
 30
        0.000000
 40
        1.299931
 50
      196.603918
 51
      270.000000
  0
LINE
  8
0
 10
        4.500122
 20
     -165.999878
 30
        0.000000
 11
        4.500122
 21
     -213.999893
 31
        0.000000
  0
LINE
  8
0
 10
       -4.999878
 20
     -165.999878
 30
        0.000000
 11
        4.500122
 21
     -165.999878
 31
        0.000000
  0
LINE
  8
0
 10
       -4.999878
 20
     -165.999878
 30
        0.000000
 11
       -4.999878
 21
     -213.999893
 31
        0.000000
  0
LINE
  8
0
 10
       -4.999878
 20
     -213.999893
 30
        0.000000
 11
        4.500122
 21
     -213.999893
 31
        0.000000
  0
CIRCLE
  8
0
 10
        1.100220
 20
     -222.999893
 30
        0.000000
 40
        2.000000
  0
LINE
  8
0
 10
        0.600220
 20
     -223.499405
 30
        0.000000
 11
        2.600220
 21
     -223.499405
 31
        0.000000
  0
LINE
  8
0
 10
        0.600220
 20
     -222.499405
 30
        0.000000
 11
        2.600220
 21
     -222.499405
 31
        0.000000
  0
LINE
  8
0
 10
        2.600220
 20
     -223.499405
 30
        0.000000
 11
        2.600220
 21
     -222.499405
 31
        0.000000
  0
LINE
  8
0
 10
        0.600220
 20
     -223.999405
 30
        0.000000
 11
        0.600220
 21
     -223.499405
 31
        0.000000
  0
LINE
  8
0
 10
       -0.399780
 20
     -222.999405
 30
        0.000000
 11
        0.600220
 21
     -223.999405
 31
        0.000000
  0
LINE
  8
0
 10
       -0.399780
 20
     -222.999405
 30
        0.000000
 11
        0.600220
 21
     -221.999405
 31
        0.000000
  0
LINE
  8
0
 10
        0.600220
 20
     -222.499405
 30
        0.000000
 11
        0.600220
 21
     -221.999405
 31
        0.000000
  0
LINE
  8
0
 10
       86.000183
 20
     -214.799881
 30
        0.000000
 11
       86.000183
 21
     -224.299881
 31
        0.000000
  0
LINE
  8
0
 10
      134.000183
 20
     -214.799881
 30
        0.000000
 11
      134.000183
 21
     -224.299881
 31
        0.000000
  0
LINE
  8
0
 10
      134.000183
 20
     -214.799881
 30
        0.000000
 11
       86.000183
 21
     -214.799881
 31
        0.000000
  0
LINE
  8
0
 10
      134.000183
 20
     -224.299881
 30
        0.000000
 11
       86.000183
 21
     -224.299881
 31
        0.000000
  0
LINE
  8
0
 10
      145.000183
 20
        3.500122
 30
        0.000000
 11
      144.021179
 21
        3.500122
 31
        0.000000
  0
ARC
  8
0
 10
      144.021179
 20
        2.200073
 30
        0.000000
 40
        1.299805
 50
       90.000000
 51
      163.391967
  0
ARC
  8
0
 10
      151.400330
 20
        0.000122
 30
        0.000000
 40
        9.000003
 50
      163.399371
 51
      196.601377
  0
ARC
  8
0
 10
      144.021179
 20
       -2.199829
 30
        0.000000
 40
        1.299931
 50
      196.603918
 51
      270.000000
  0
LINE
  8
0
 10
      145.000183
 20
       -3.499878
 30
        0.000000
 11
      144.021179
 21
       -3.499878
 31
        0.000000
  0
LINE
  8
0
 10
      145.000183
 20
       -3.499878
 30
        0.000000
 11
      145.000183
 21
        3.500122
 31
        0.000000
  0
LINE
  8
0
 10
      160.000183
 20
        0.000122
 30
        0.000000
 11
      158.000183
 21
        2.000122
 31
        0.000000
  0
LINE
  8
0
 10
      160.000183
 20
        0.000122
 30
        0.000000
 11
      158.000183
 21
       -1.999878
 31
        0.000000
  0
LINE
  8
0
 10
      158.000183
 20
        2.000122
 30
        0.000000
 11
      158.000183
 21
       -1.999878
 31
        0.000000
  0
LINE
  8
0
 10
      158.400330
 20
        1.600220
 30
        0.000000
 11
      155.000183
 21
        1.600220
 31
        0.000000
  0
LINE
  8
0
 10
      158.000183
 20
        2.000122
 30
        0.000000
 11
      155.000183
 21
        2.000122
 31
        0.000000
  0
LINE
  8
0
 10
      158.400330
 20
       -1.599731
 30
        0.000000
 11
      155.000183
 21
       -1.599731
 31
        0.000000
  0
LINE
  8
0
 10
      158.000183
 20
       -1.999878
 30
        0.000000
 11
      155.000183
 21
       -1.999878
 31
        0.000000
  0
LINE
  8
0
 10
       76.000183
 20
      -88.654053
 30
        0.000000
 11
       76.000183
 21
      -86.999878
 31
        0.000000
  0
LINE
  8
0
 10
       77.100281
 20
      -97.199829
 30
        0.000000
 11
       77.100281
 21
      -90.099731
 31
        0.000000
  0
LINE
  8
0
 10
       77.100281
 20
     -135.799927
 30
        0.000000
 11
       77.100281
 21
     -104.199829
 31
        0.000000
  0
LINE
  8
0
 10
       76.000183
 20
     -152.999878
 30
        0.000000
 11
       76.000183
 21
     -151.345520
 31
        0.000000
  0
CIRCLE
  8
0
 10
        0.000122
 20
        0.000122
 30
        0.000000
 40
        3.500000
  0
LINE
  8
0
 10
        1.414185
 20
        1.414124
 30
        0.000000
 11
       -1.414185
 21
       -1.414246
 31
        0.000000
  0
LINE
  8
0
 10
       -2.474854
 20
        2.474854
 30
        0.000000
 11
        2.474854
 21
       -2.474854
 31
        0.000000
  0
CIRCLE
  8
0
 10
        0.000122
 20
     -239.999893
 30
        0.000000
 40
        3.500000
  0
LINE
  8
0
 10
        1.414185
 20
     -238.585892
 30
        0.000000
 11
       -1.414185
 21
     -241.414261
 31
        0.000000
  0
LINE
  8
0
 10
       -2.474854
 20
     -237.525162
 30
        0.000000
 11
        2.474854
 21
     -242.474869
 31
        0.000000
  0
LINE
  8
0
 10
       -5.499756
 20
     -152.999878
 30
        0.000000
 11
       -5.499756
 21
      -86.999878
 31
        0.000000
  0
LINE
  8
0
 10
       -3.899780
 20
      -86.999878
 30
        0.000000
 11
       -3.899780
 21
      -97.199829
 31
        0.000000
  0
LINE
  8
0
 10
       -0.197144
 20
      -86.999878
 30
        0.000000
 11
       -8.499878
 21
      -86.999878
 31
        0.000000
  0
LINE
  8
0
 10
        3.859619
 20
      -86.999878
 30
        0.000000
 11
        0.940674
 21
      -86.999878
 31
        0.000000
  0
LINE
  8
0
 10
       -0.197144
 20
     -152.999878
 30
        0.000000
 11
       -8.499878
 21
     -152.999878
 31
        0.000000
  0
LINE
  8
0
 10
        3.859619
 20
     -152.999878
 30
        0.000000
 11
        0.940674
 21
     -152.999878
 31
        0.000000
  0
LINE
  8
0
 10
       -3.899780
 20
     -104.199829
 30
        0.000000
 11
       -3.899780
 21
     -135.799927
 31
        0.000000
  0
LINE
  8
0
 10
       -3.899780
 20
     -142.799927
 30
        0.000000
 11
       -3.899780
 21
     -152.999878
 31
        0.000000
  0
LINE
  8
0
 10
       -3.899780
 20
     -165.999878
 30
        0.000000
 11
       -3.899780
 21
     -213.999893
 31
        0.000000
  0
LINE
  8
0
 10
       -3.899780
 20
      -97.199829
 30
        0.000000
 11
       -3.899780
 21
      -93.499878
 31
        0.000000
  0
LINE
  8
0
 10
        9.000122
 20
     -104.199829
 30
        0.000000
 11
        9.000122
 21
     -135.799927
 31
        0.000000
  0
LINE
  8
0
 10
        8.700073
 20
      -97.199829
 30
        0.000000
 11
        8.700073
 21
      -93.499878
 31
        0.000000
  0
LINE
  8
0
 10
        8.550171
 20
      -93.499878
 30
        0.000000
 11
        8.700073
 21
      -93.499878
 31
        0.000000
  0
CIRCLE
  8
0
 10
        3.810181
 20
     -103.439819
 30
        0.000000
 40
        0.500000
  0
CIRCLE
  8
0
 10
        0.970093
 20
     -104.809937
 30
        0.000000
 40
        0.500000
  0
CIRCLE
  8
0
 10
        3.810181
 20
     -106.179810
 30
        0.000000
 40
        0.500000
  0
CIRCLE
  8
0
 10
        0.970093
 20
     -107.579956
 30
        0.000000
 40
        0.500000
  0
CIRCLE
  8
0
 10
        3.810181
 20
     -108.949829
 30
        0.000000
 40
        0.500000
  0
CIRCLE
  8
0
 10
        0.970093
 20
     -110.319946
 30
        0.000000
 40
        0.500000
  0
CIRCLE
  8
0
 10
        3.810181
 20
     -111.719849
 30
        0.000000
 40
        0.500000
  0
CIRCLE
  8
0
 10
        0.970093
 20
     -113.089966
 30
        0.000000
 40
        0.500000
  0
CIRCLE
  8
0
 10
        3.810181
 20
     -114.459839
 30
        0.000000
 40
        0.500000
  0
CIRCLE
  8
0
 10
        0.970093
 20
     -115.859985
 30
        0.000000
 40
        0.500000
  0
CIRCLE
  8
0
 10
        3.810181
 20
     -117.229858
 30
        0.000000
 40
        0.500000
  0
CIRCLE
  8
0
 10
        0.970093
 20
     -118.599731
 30
        0.000000
 40
        0.500000
  0
CIRCLE
  8
0
 10
        3.810181
 20
     -119.999878
 30
        0.000000
 40
        0.500000
  0
CIRCLE
  8
0
 10
        0.970093
 20
     -121.400024
 30
        0.000000
 40
        0.500000
  0
CIRCLE
  8
0
 10
        3.810181
 20
     -122.769897
 30
        0.000000
 40
        0.500000
  0
CIRCLE
  8
0
 10
        0.970093
 20
     -124.139771
 30
        0.000000
 40
        0.500000
  0
CIRCLE
  8
0
 10
        3.810181
 20
     -125.539917
 30
        0.000000
 40
        0.500000
  0
CIRCLE
  8
0
 10
        0.970093
 20
     -126.909790
 30
        0.000000
 40
        0.500000
  0
CIRCLE
  8
0
 10
        3.810181
 20
     -128.279907
 30
        0.000000
 40
        0.500000
  0
CIRCLE
  8
0
 10
        0.970093
 20
     -129.679810
 30
        0.000000
 40
        0.500000
  0
CIRCLE
  8
0
 10
        3.810181
 20
     -131.049927
 30
        0.000000
 40
        0.500000
  0
CIRCLE
  8
0
 10
        0.970093
 20
     -132.419800
 30
        0.000000
 40
        0.500000
  0
CIRCLE
  8
0
 10
        3.810181
 20
     -133.819946
 30
        0.000000
 40
        0.500000
  0
CIRCLE
  8
0
 10
        0.970093
 20
     -135.189819
 30
        0.000000
 40
        0.500000
  0
CIRCLE
  8
0
 10
        3.810181
 20
     -136.559937
 30
        0.000000
 40
        0.500000
  0
LINE
  8
0
 10
        9.000122
 20
     -142.799927
 30
        0.000000
 11
        9.000122
 21
     -152.999878
 31
        0.000000
  0
LINE
  8
0
 10
        8.700073
 20
     -135.799927
 30
        0.000000
 11
        8.700073
 21
     -104.199829
 31
        0.000000
  0
LINE
  8
0
 10
       -3.899780
 20
     -135.799927
 30
        0.000000
 11
       -3.899780
 21
     -104.199829
 31
        0.000000
  0
LINE
  8
0
 10
        8.550171
 20
     -146.499878
 30
        0.000000
 11
        8.700073
 21
     -146.499878
 31
        0.000000
  0
LINE
  8
0
  6
CENTER
 62
  1
 10
       65.800232
 20
      -72.239868
 30
        0.000000
 11
       65.800232
 21
      -73.199829
 31
        0.000000
  0
LINE
  8
0
  6
CENTER
 62
  1
 10
       65.800232
 20
      -26.799927
 30
        0.000000
 11
       65.800232
 21
      -27.759888
 31
        0.000000
  0
LINE
  8
0
  6
CENTER
 62
  1
 10
       73.200134
 20
      -73.199829
 30
        0.000000
 11
       65.800232
 21
      -73.199829
 31
        0.000000
  0
LINE
  8
0
  6
CENTER
 62
  1
 10
       73.200134
 20
      -26.799927
 30
        0.000000
 11
       65.800232
 21
      -26.799927
 31
        0.000000
  0
ARC
  8
0
  6
CENTER
 62
  1
 10
       65.800232
 20
      -67.739868
 30
        0.000000
 40
        4.500000
 50
      180.000015
 51
      270.000000
  0
ARC
  8
0
  6
CENTER
 62
  1
 10
       65.800232
 20
      -32.259888
 30
        0.000000
 40
        4.500000
 50
       90.000000
 51
      180.000015
  0
LINE
  8
0
  6
CENTER
 62
  1
 10
       61.300232
 20
      -67.739868
 30
        0.000000
 11
       61.300232
 21
      -32.259888
 31
        0.000000
  0
LINE
  8
0
  6
CENTER
 62
  1
 10
       75.000183
 20
      -72.239868
 30
        0.000000
 11
       65.800232
 21
      -72.239868
 31
        0.000000
  0
LINE
  8
0
  6
CENTER
 62
  1
 10
       75.000183
 20
      -27.759888
 30
        0.000000
 11
       65.800232
 21
      -27.759888
 31
        0.000000
  0
LINE
  8
0
  6
CENTER
 62
  1
 10
       73.200134
 20
      -73.199829
 30
        0.000000
 11
       73.200134
 21
      -26.799927
 31
        0.000000
  0
LINE
  8
0
  6
CENTER
 62
  1
 10
       65.800232
 20
     -212.239868
 30
        0.000000
 11
       65.800232
 21
     -213.199829
 31
        0.000000
  0
LINE
  8
0
  6
CENTER
 62
  1
 10
       65.800232
 20
     -166.799927
 30
        0.000000
 11
       65.800232
 21
     -167.759888
 31
        0.000000
  0
LINE
  8
0
  6
CENTER
 62
  1
 10
       73.200134
 20
     -213.199829
 30
        0.000000
 11
       65.800232
 21
     -213.199829
 31
        0.000000
  0
LINE
  8
0
  6
CENTER
 62
  1
 10
       73.200134
 20
     -166.799927
 30
        0.000000
 11
       65.800232
 21
     -166.799927
 31
        0.000000
  0
ARC
  8
0
  6
CENTER
 62
  1
 10
       65.800232
 20
     -207.739868
 30
        0.000000
 40
        4.500000
 50
      180.000015
 51
      270.000000
  0
ARC
  8
0
  6
CENTER
 62
  1
 10
       65.800232
 20
     -172.259888
 30
        0.000000
 40
        4.500000
 50
       90.000000
 51
      180.000015
  0
LINE
  8
0
  6
CENTER
 62
  1
 10
       61.300232
 20
     -207.739868
 30
        0.000000
 11
       61.300232
 21
     -172.259888
 31
        0.000000
  0
LINE
  8
0
  6
CENTER
 62
  1
 10
       75.000183
 20
     -212.239868
 30
        0.000000
 11
       65.800232
 21
     -212.239868
 31
        0.000000
  0
LINE
  8
0
  6
CENTER
 62
  1
 10
       75.000183
 20
     -167.759888
 30
        0.000000
 11
       65.800232
 21
     -167.759888
 31
        0.000000
  0
LINE
  8
0
  6
CENTER
 62
  1
 10
       73.200134
 20
     -213.199829
 30
        0.000000
 11
       73.200134
 21
     -166.799927
 31
        0.000000
  0
LINE
  8
0
  6
CENTER
 62
  1
 10
       21.100159
 20
     -223.542236
 30
        0.000000
 11
       21.100159
 21
     -215.342285
 31
        0.000000
  0
LINE
  8
0
  6
CENTER
 62
  1
 10
       17.100159
 20
     -221.842316
 30
        0.000000
 11
       17.100159
 21
     -217.042313
 31
        0.000000
  0
LINE
  8
0
  6
CENTER
 62
  1
 10
       16.600159
 20
     -217.042313
 30
        0.000000
 11
       16.600159
 21
     -215.342285
 31
        0.000000
  0
LINE
  8
0
  6
CENTER
 62
  1
 10
       16.600159
 20
     -223.542236
 30
        0.000000
 11
       16.600159
 21
     -221.842316
 31
        0.000000
  0
LINE
  8
0
  6
CENTER
 62
  1
 10
       21.100159
 20
     -221.842316
 30
        0.000000
 11
       10.000122
 21
     -221.842316
 31
        0.000000
  0
LINE
  8
0
  6
CENTER
 62
  1
 10
       21.100159
 20
     -217.042313
 30
        0.000000
 11
       10.000122
 21
     -217.042313
 31
        0.000000
  0
LINE
  8
0
  6
CENTER
 62
  1
 10
       21.100159
 20
     -223.542236
 30
        0.000000
 11
       10.000122
 21
     -223.542236
 31
        0.000000
  0
LINE
  8
0
  6
CENTER
 62
  1
 10
       21.100159
 20
     -215.342285
 30
        0.000000
 11
       10.000122
 21
     -215.342285
 31
        0.000000
  0
LINE
  8
0
 10
      145.000183
 20
       43.500122
 30
        0.000000
 11
      145.000183
 21
       25.000122
 31
        0.000000
  0
LINE
  8
0
 10
      155.000183
 20
       43.500122
 30
        0.000000
 11
      155.000183
 21
       25.000122
 31
        0.000000
  0
LINE
  8
0
 10
       75.000183
 20
       43.500122
 30
        0.000000
 11
       75.000183
 21
       25.000122
 31
        0.000000
  0
LINE
  8
0
 10
      160.000183
 20
       34.250122
 30
        0.000000
 11
      158.000183
 21
       32.250122
 31
        0.000000
  0
LINE
  8
0
 10
      160.000183
 20
       34.250122
 30
        0.000000
 11
      158.000183
 21
       36.250122
 31
        0.000000
  0
LINE
  8
0
 10
      158.000183
 20
       32.250122
 30
        0.000000
 11
      155.000183
 21
       32.250122
 31
        0.000000
  0
LINE
  8
0
 10
      158.400330
 20
       32.650269
 30
        0.000000
 11
      155.000183
 21
       32.650269
 31
        0.000000
  0
LINE
  8
0
 10
      158.000183
 20
       36.250122
 30
        0.000000
 11
      155.000183
 21
       36.250122
 31
        0.000000
  0
LINE
  8
0
 10
      158.400330
 20
       35.850220
 30
        0.000000
 11
      155.000183
 21
       35.850220
 31
        0.000000
  0
LINE
  8
0
 10
      158.000183
 20
       36.250122
 30
        0.000000
 11
      158.000183
 21
       32.250122
 31
        0.000000
  0
LINE
  8
0
 10
      145.000183
 20
       30.750122
 30
        0.000000
 11
      144.021179
 21
       30.750122
 31
        0.000000
  0
ARC
  8
0
 10
      144.021179
 20
       32.050171
 30
        0.000000
 40
        1.299931
 50
      196.603918
 51
      270.000000
  0
ARC
  8
0
 10
      151.400330
 20
       34.250122
 30
        0.000000
 40
        9.000003
 50
      163.399371
 51
      196.601390
  0
ARC
  8
0
 10
      144.021179
 20
       36.450073
 30
        0.000000
 40
        1.299805
 50
       90.000000
 51
      163.391912
  0
LINE
  8
0
 10
      145.000183
 20
       37.750122
 30
        0.000000
 11
      144.021179
 21
       37.750122
 31
        0.000000
  0
LINE
  8
0
 10
       75.000183
 20
       43.500122
 30
        0.000000
 11
      155.000183
 21
       43.500122
 31
        0.000000
  0
LINE
  8
0
 10
       75.000183
 20
       25.000122
 30
        0.000000
 11
      155.000183
 21
       25.000122
 31
        0.000000
  0
LINE
  8
0
 10
       71.000122
 20
       28.700122
 30
        0.000000
 11
       71.000122
 21
       36.500122
 31
        0.000000
  0
LINE
  8
0
 10
       71.000122
 20
       36.500122
 30
        0.000000
 11
       75.000183
 21
       36.500122
 31
        0.000000
  0
LINE
  8
0
 10
       71.000122
 20
       28.700122
 30
        0.000000
 11
       75.000183
 21
       28.700122
 31
        0.000000
  0
LINE
  8
0
 10
      138.800183
 20
       39.000122
 30
        0.000000
 11
      138.800183
 21
       26.000122
 31
        0.000000
  0
LINE
  8
0
 10
      136.800183
 20
       26.000122
 30
        0.000000
 11
      138.800183
 21
       26.000122
 31
        0.000000
  0
LINE
  8
0
 10
      136.800183
 20
       39.000122
 30
        0.000000
 11
      136.800183
 21
       26.000122
 31
        0.000000
  0
LINE
  8
0
 10
      136.800183
 20
       39.000122
 30
        0.000000
 11
      138.800183
 21
       39.000122
 31
        0.000000
  0
LINE
  8
0
 10
      134.800183
 20
       39.000122
 30
        0.000000
 11
      134.800183
 21
       26.000122
 31
        0.000000
  0
LINE
  8
0
 10
      132.800183
 20
       26.000122
 30
        0.000000
 11
      134.800183
 21
       26.000122
 31
        0.000000
  0
LINE
  8
0
 10
      132.800183
 20
       39.000122
 30
        0.000000
 11
      132.800183
 21
       26.000122
 31
        0.000000
  0
LINE
  8
0
 10
      132.800183
 20
       39.000122
 30
        0.000000
 11
      134.800183
 21
       39.000122
 31
        0.000000
  0
LINE
  8
0
 10
      128.800183
 20
       39.000122
 30
        0.000000
 11
      130.800183
 21
       39.000122
 31
        0.000000
  0
LINE
  8
0
 10
      128.800183
 20
       39.000122
 30
        0.000000
 11
      128.800183
 21
       26.000122
 31
        0.000000
  0
LINE
  8
0
 10
      128.800183
 20
       26.000122
 30
        0.000000
 11
      130.800183
 21
       26.000122
 31
        0.000000
  0
LINE
  8
0
 10
      130.800183
 20
       39.000122
 30
        0.000000
 11
      130.800183
 21
       26.000122
 31
        0.000000
  0
LINE
  8
0
 10
      126.800183
 20
       39.000122
 30
        0.000000
 11
      126.800183
 21
       26.000122
 31
        0.000000
  0
LINE
  8
0
 10
      124.800183
 20
       26.000122
 30
        0.000000
 11
      126.800183
 21
       26.000122
 31
        0.000000
  0
LINE
  8
0
 10
      124.800183
 20
       39.000122
 30
        0.000000
 11
      124.800183
 21
       26.000122
 31
        0.000000
  0
LINE
  8
0
 10
      124.800183
 20
       39.000122
 30
        0.000000
 11
      126.800183
 21
       39.000122
 31
        0.000000
  0
LINE
  8
0
 10
      120.800183
 20
       39.000122
 30
        0.000000
 11
      122.800183
 21
       39.000122
 31
        0.000000
  0
LINE
  8
0
 10
      120.800183
 20
       39.000122
 30
        0.000000
 11
      120.800183
 21
       26.000122
 31
        0.000000
  0
LINE
  8
0
 10
      120.800183
 20
       26.000122
 30
        0.000000
 11
      122.800183
 21
       26.000122
 31
        0.000000
  0
LINE
  8
0
 10
      122.800183
 20
       39.000122
 30
        0.000000
 11
      122.800183
 21
       26.000122
 31
        0.000000
  0
LINE
  8
0
 10
      118.800183
 20
       39.000122
 30
        0.000000
 11
      118.800183
 21
       26.000122
 31
        0.000000
  0
LINE
  8
0
 10
      116.800183
 20
       26.000122
 30
        0.000000
 11
      118.800183
 21
       26.000122
 31
        0.000000
  0
LINE
  8
0
 10
      116.800183
 20
       39.000122
 30
        0.000000
 11
      116.800183
 21
       26.000122
 31
        0.000000
  0
LINE
  8
0
 10
      116.800183
 20
       39.000122
 30
        0.000000
 11
      118.800183
 21
       39.000122
 31
        0.000000
  0
LINE
  8
0
 10
      112.800183
 20
       39.000122
 30
        0.000000
 11
      114.800183
 21
       39.000122
 31
        0.000000
  0
LINE
  8
0
 10
      112.800183
 20
       39.000122
 30
        0.000000
 11
      112.800183
 21
       26.000122
 31
        0.000000
  0
LINE
  8
0
 10
      112.800183
 20
       26.000122
 30
        0.000000
 11
      114.800183
 21
       26.000122
 31
        0.000000
  0
LINE
  8
0
 10
      114.800183
 20
       39.000122
 30
        0.000000
 11
      114.800183
 21
       26.000122
 31
        0.000000
  0
LINE
  8
0
 10
      110.800183
 20
       39.000122
 30
        0.000000
 11
      110.800183
 21
       26.000122
 31
        0.000000
  0
LINE
  8
0
 10
      108.800183
 20
       26.000122
 30
        0.000000
 11
      110.800183
 21
       26.000122
 31
        0.000000
  0
LINE
  8
0
 10
      108.800183
 20
       39.000122
 30
        0.000000
 11
      108.800183
 21
       26.000122
 31
        0.000000
  0
LINE
  8
0
 10
      108.800183
 20
       39.000122
 30
        0.000000
 11
      110.800183
 21
       39.000122
 31
        0.000000
  0
LINE
  8
0
 10
      104.800183
 20
       39.000122
 30
        0.000000
 11
      106.800183
 21
       39.000122
 31
        0.000000
  0
LINE
  8
0
 10
      104.800183
 20
       39.000122
 30
        0.000000
 11
      104.800183
 21
       26.000122
 31
        0.000000
  0
LINE
  8
0
 10
      104.800183
 20
       26.000122
 30
        0.000000
 11
      106.800183
 21
       26.000122
 31
        0.000000
  0
LINE
  8
0
 10
      106.800183
 20
       39.000122
 30
        0.000000
 11
      106.800183
 21
       26.000122
 31
        0.000000
  0
LINE
  8
0
 10
      102.800183
 20
       39.000122
 30
        0.000000
 11
      102.800183
 21
       26.000122
 31
        0.000000
  0
LINE
  8
0
 10
      100.800183
 20
       26.000122
 30
        0.000000
 11
      102.800183
 21
       26.000122
 31
        0.000000
  0
LINE
  8
0
 10
      100.800183
 20
       39.000122
 30
        0.000000
 11
      100.800183
 21
       26.000122
 31
        0.000000
  0
LINE
  8
0
 10
      100.800183
 20
       39.000122
 30
        0.000000
 11
      102.800183
 21
       39.000122
 31
        0.000000
  0
ENDSEC
  0
EOF
