  0
SECTION
  2
HEADER
  9
$ACADVER
  1
AC1006
  9
$INSBASE
 10
0.0
 20
0.0
 30
0.0
  9
$EXTMIN
 10
     -166.043610
 20
     -166.043610
  9
$EXTMAX
 10
      154.999207
 20
       45.000000
  9
$LIMMIN
 10
     -166.043610
 20
     -166.043610
  9
$LIMMAX
 10
      154.999207
 20
       45.000000
  9
$VIEWCTR
 10
       -5.522202
 20
       -5.522202
  9
$ORTHOMODE
 70
     0
  9
$ANGBASE
 50
0.0
  9
$ANGDIR
 70
     0
  9
$SPLINETYPE
 70
     6
  9
$SPLINESEGS
 70
     8
9
$DIMASZ
 40
        6.000000
9
$DIMEXE
 40
        1.500000
9
$DIMEXO
 40
        2.500000
9
$DIMTXT
 40
        5.000000
9
$DIMGAP
 40
        1.500000
9
$DIMTAD
 70
1
9
$DIMTIH
 70
0
9
$DIMTOH
 70
0
  0
ENDSEC
  0
SECTION
  2
TABLES
  0
TABLE
  2
LTYPE
 70
     5
  0
LTYPE
  2
CONTINUOUS
 70
    64
  3
SOLID LINE
 72
    65
 73
     0
 40
0.0
  0
LTYPE
  2
DASHED
 70
    64
  3
-- -- -- -- -- --
 72
    65
 73
     2
 40
  0.75  
 49
  0.50  
 49
 -0.25  
  0
LTYPE
  2
DOT
 70
    64
  3
....................
 72
    65
 73
     2
 40
  0.25  
 49
  0.02  
 49
 -0.23  
  0
LTYPE
  2
CENTER
 70
    64
  3
-- . -- . -- . -- .
 72
    65
 73
    4
 40
  2.00  
 49
  1.25  
 49
 -0.25  
 49
  0.25  
 49
 -0.25  
  0
LTYPE
  2
PHANTOM
 70
    64
  3
-- .. -- .. -- ..
 72
    65
 73
    6
 40
  2.50  
 49
  1.25  
 49
 -0.25  
 49
  0.25  
 49
 -0.25  
 49
  0.25  
 49
 -0.25  
  0
ENDTAB
  0
TABLE
  2
LAYER
 70
     1
  0
LAYER
  2
0
 70
    64
 62
     3
  6
DOT
  0
ENDTAB
  0
TABLE
  2
STYLE
 70
     2
  0
STYLE
  2
STANDARD
 70
    64
 40
0.0
 41
1.0
 50
0.0
 71
     0
 42
5.0
  3
ROMANS
  4
BIGFONT
  0
STYLE
  2
BIGFONT
 70
    64
 40
0.0
 41
1.0
 50
0.0
 71
     0
 42
5.0
  3
ROMANS
  4
BIGFONT
  0
ENDTAB
  0
TABLE
  2
VIEW
 70
     0
  0
ENDTAB
  0
TABLE
  2
UCS
 70
     0
  0
ENDTAB
  0
TABLE
  2
DWGMGR
 70
     0
  0
ENDTAB
  0
ENDSEC
  0
SECTION
  2
BLOCKS
  0
BLOCK
  8
0
  2
BLK0001
 70
    64
 10
        0.000000
 20
        0.000000
  0
TEXT
  8
0
  6
CONTINUOUS
 62
  2
 10
       -2.755481
 20
      -66.937599
 30
        0.000000
 40
        2.505000
  1
６４
 50
        0.000000
 41
        1.000000
 51
        0.000000
  7
BIGFONT
  0
LINE
  8
0
  6
CONTINUOUS
 62
  2
 10
       32.000000
 20
      -39.500008
 30
        0.000000
 11
       32.000000
 21
      -68.737602
 31
        0.000000
  0
LINE
  8
0
  6
CONTINUOUS
 62
  2
 10
      -32.000000
 20
      -39.500008
 30
        0.000000
 11
      -32.000000
 21
      -68.737602
 31
        0.000000
  0
LINE
  8
0
  6
CONTINUOUS
 62
  2
 10
       29.000000
 20
      -68.623001
 30
        0.000000
 11
       32.000000
 21
      -67.837601
 31
        0.000000
  0
LINE
  8
0
  6
CONTINUOUS
 62
  2
 10
       32.000000
 20
      -67.837601
 30
        0.000000
 11
       29.000000
 21
      -67.052200
 31
        0.000000
  0
LINE
  8
0
  6
CONTINUOUS
 62
  2
 10
      -29.000000
 20
      -67.052200
 30
        0.000000
 11
      -32.000000
 21
      -67.837601
 31
        0.000000
  0
LINE
  8
0
  6
CONTINUOUS
 62
  2
 10
      -32.000000
 20
      -67.837601
 30
        0.000000
 11
      -29.000000
 21
      -68.623001
 31
        0.000000
  0
LINE
  8
0
  6
CONTINUOUS
 62
  2
 10
       32.000000
 20
      -67.837601
 30
        0.000000
 11
      -32.000000
 21
      -67.837601
 31
        0.000000
  0
ENDBLK
  0
BLOCK
  8
0
  2
BLK0002
 70
    64
 10
        0.000000
 20
        0.000000
  0
TEXT
  8
0
  6
CONTINUOUS
 62
  2
 10
      108.999992
 20
      -66.496971
 30
        0.000000
 40
        2.505000
  1
７６
 50
        0.000000
 41
        1.000000
 51
        0.000000
  7
BIGFONT
  0
LINE
  8
0
  6
CONTINUOUS
 62
  2
 10
       73.999992
 20
       -1.500089
 30
        0.000000
 11
       73.999992
 21
      -68.296967
 31
        0.000000
  0
LINE
  8
0
  6
CONTINUOUS
 62
  2
 10
      150.000000
 20
      -46.500015
 30
        0.000000
 11
      150.000000
 21
      -68.296974
 31
        0.000000
  0
LINE
  8
0
  6
CONTINUOUS
 62
  2
 10
       76.999992
 20
      -66.611565
 30
        0.000000
 11
       73.999992
 21
      -67.396965
 31
        0.000000
  0
LINE
  8
0
  6
CONTINUOUS
 62
  2
 10
       73.999992
 20
      -67.396965
 30
        0.000000
 11
       76.999992
 21
      -68.182365
 31
        0.000000
  0
LINE
  8
0
  6
CONTINUOUS
 62
  2
 10
      147.000000
 20
      -68.182373
 30
        0.000000
 11
      150.000000
 21
      -67.396973
 31
        0.000000
  0
LINE
  8
0
  6
CONTINUOUS
 62
  2
 10
      150.000000
 20
      -67.396973
 30
        0.000000
 11
      147.000000
 21
      -66.611572
 31
        0.000000
  0
LINE
  8
0
  6
CONTINUOUS
 62
  2
 10
       73.999992
 20
      -67.396965
 30
        0.000000
 11
      150.000000
 21
      -67.396973
 31
        0.000000
  0
ENDBLK
  0
BLOCK
  8
0
  2
BLK0003
 70
    64
 10
        0.000000
 20
        0.000000
  0
TEXT
  8
0
  6
CONTINUOUS
 62
  2
 10
       51.786732
 20
       -3.000008
 30
        0.000000
 40
        2.505000
  1
９０
 50
       90.000000
 41
        1.000000
 51
        0.000000
  7
BIGFONT
  0
LINE
  8
0
  6
CONTINUOUS
 62
  2
 10
       26.500000
 20
       44.999992
 30
        0.000000
 11
       53.586731
 21
       44.999992
 31
        0.000000
  0
LINE
  8
0
  6
CONTINUOUS
 62
  2
 10
       26.500000
 20
      -45.000008
 30
        0.000000
 11
       53.586731
 21
      -45.000008
 31
        0.000000
  0
LINE
  8
0
  6
CONTINUOUS
 62
  2
 10
       53.472130
 20
       41.999992
 30
        0.000000
 11
       52.686729
 21
       44.999992
 31
        0.000000
  0
LINE
  8
0
  6
CONTINUOUS
 62
  2
 10
       52.686729
 20
       44.999992
 30
        0.000000
 11
       51.901329
 21
       41.999992
 31
        0.000000
  0
LINE
  8
0
  6
CONTINUOUS
 62
  2
 10
       51.901329
 20
      -42.000008
 30
        0.000000
 11
       52.686729
 21
      -45.000008
 31
        0.000000
  0
LINE
  8
0
  6
CONTINUOUS
 62
  2
 10
       52.686729
 20
      -45.000008
 30
        0.000000
 11
       53.472126
 21
      -42.000008
 31
        0.000000
  0
LINE
  8
0
  6
CONTINUOUS
 62
  2
 10
       52.686729
 20
       44.999992
 30
        0.000000
 11
       52.686729
 21
      -45.000008
 31
        0.000000
  0
ENDBLK
  0
ENDSEC
  0
SECTION
  2
ENTITIES
  0
LINE
  8
0
 10
       -6.764990
 20
      -45.000000
 30
        0.000000
 11
       -6.764990
 21
      -35.800073
 31
        0.000000
  0
LINE
  8
0
 10
       -0.665015
 20
      -45.000000
 30
        0.000000
 11
       -0.665015
 21
      -35.800073
 31
        0.000000
  0
LINE
  8
0
 10
        0.855005
 20
      -45.000000
 30
        0.000000
 11
        0.855005
 21
      -35.800073
 31
        0.000000
  0
LINE
  8
0
 10
        6.954980
 20
      -45.000000
 30
        0.000000
 11
        6.954980
 21
      -35.800073
 31
        0.000000
  0
LINE
  8
0
 10
        8.475000
 20
      -45.000000
 30
        0.000000
 11
        8.475000
 21
      -35.800073
 31
        0.000000
  0
LINE
  8
0
 10
       14.574976
 20
      -45.000000
 30
        0.000000
 11
       14.574976
 21
      -35.800073
 31
        0.000000
  0
LINE
  8
0
 10
       16.094995
 20
      -45.000000
 30
        0.000000
 11
       16.094995
 21
      -35.800073
 31
        0.000000
  0
LINE
  8
0
 10
       22.194971
 20
      -45.000000
 30
        0.000000
 11
       22.194971
 21
      -26.500024
 31
        0.000000
  0
INSERT
  8
0
  6
CONTINUOUS
 62
  5
  2
BLK0001
 10
        0.000000
 20
        0.000000
  0
INSERT
  8
0
  6
CONTINUOUS
 62
  5
  2
BLK0002
 10
        0.000000
 20
        0.000000
  0
INSERT
  8
0
  6
CONTINUOUS
 62
  5
  2
BLK0003
 10
        0.000000
 20
        0.000000
  0
TEXT
  8
0
  6
CONTINUOUS
 62
  2
 10
      -89.316572
 20
       38.375407
 30
        0.000000
 40
        4.175000
  1
ＪＷ１４ＡＤ
 50
        0.000000
 41
        1.000000
 51
        0.000000
  7
BIGFONT
  0
TEXT
  8
0
  6
CONTINUOUS
 62
  2
 10
      -89.316572
 20
       31.375407
 30
        0.000000
 40
        4.175000
  1
ＪＷ１２ＤＡ
 50
        0.000000
 41
        1.000000
 51
        0.000000
  7
BIGFONT
  0
LINE
  8
0
  6
CONTINUOUS
 10
      -23.000015
 20
     -103.000015
 30
        0.000000
 11
      -23.000015
 21
      -97.500008
 31
        0.000000
  0
LINE
  8
0
  6
CONTINUOUS
 10
      -23.000015
 20
     -152.000008
 30
        0.000000
 11
      -23.000015
 21
     -103.500015
 31
        0.000000
  0
LINE
  8
0
  6
CONTINUOUS
 10
       -3.000008
 20
     -131.000008
 30
        0.000000
 11
       -3.000008
 21
     -129.500008
 31
        0.000000
  0
LINE
  8
0
  6
CONTINUOUS
 10
       -3.000008
 20
     -134.000008
 30
        0.000000
 11
       -3.000008
 21
     -132.500008
 31
        0.000000
  0
LINE
  8
0
  6
CONTINUOUS
 10
       -3.000008
 20
     -137.000008
 30
        0.000000
 11
       -3.000008
 21
     -135.500008
 31
        0.000000
  0
LINE
  8
0
  6
CONTINUOUS
 10
       -3.000008
 20
     -140.000008
 30
        0.000000
 11
       -3.000008
 21
     -138.500008
 31
        0.000000
  0
LINE
  8
0
  6
CONTINUOUS
 10
       -3.000008
 20
     -143.000008
 30
        0.000000
 11
       -3.000008
 21
     -141.500008
 31
        0.000000
  0
LINE
  8
0
  6
CONTINUOUS
 10
       -3.000008
 20
     -146.000008
 30
        0.000000
 11
       -3.000008
 21
     -144.500008
 31
        0.000000
  0
LINE
  8
0
  6
CONTINUOUS
 10
       -3.000008
 20
     -149.000008
 30
        0.000000
 11
       -3.000008
 21
     -147.500008
 31
        0.000000
  0
LINE
  8
0
  6
CONTINUOUS
 10
       -3.000008
 20
     -152.000008
 30
        0.000000
 11
       -3.000008
 21
     -150.500008
 31
        0.000000
  0
LINE
  8
0
  6
CONTINUOUS
 10
        6.999992
 20
     -131.000008
 30
        0.000000
 11
        6.999992
 21
     -129.500008
 31
        0.000000
  0
LINE
  8
0
  6
CONTINUOUS
 10
        6.999992
 20
     -134.000008
 30
        0.000000
 11
        6.999992
 21
     -132.500008
 31
        0.000000
  0
LINE
  8
0
  6
CONTINUOUS
 10
        6.999992
 20
     -137.000008
 30
        0.000000
 11
        6.999992
 21
     -135.500008
 31
        0.000000
  0
LINE
  8
0
  6
CONTINUOUS
 10
        6.999992
 20
     -140.000008
 30
        0.000000
 11
        6.999992
 21
     -138.500008
 31
        0.000000
  0
LINE
  8
0
  6
CONTINUOUS
 10
        6.999992
 20
     -143.000008
 30
        0.000000
 11
        6.999992
 21
     -141.500008
 31
        0.000000
  0
LINE
  8
0
  6
CONTINUOUS
 10
        6.999992
 20
     -146.000008
 30
        0.000000
 11
        6.999992
 21
     -144.500008
 31
        0.000000
  0
LINE
  8
0
  6
CONTINUOUS
 10
        6.999992
 20
     -149.000008
 30
        0.000000
 11
        6.999992
 21
     -147.500008
 31
        0.000000
  0
LINE
  8
0
  6
CONTINUOUS
 10
        6.999992
 20
     -152.000008
 30
        0.000000
 11
        6.999992
 21
     -150.500008
 31
        0.000000
  0
LINE
  8
0
  6
CONTINUOUS
 10
      141.999992
 20
       32.999992
 30
        0.000000
 11
      141.999992
 21
      -33.000008
 31
        0.000000
  0
LINE
  8
0
  6
CONTINUOUS
 10
      141.999992
 20
       45.000000
 30
        0.000000
 11
      141.999992
 21
       35.999992
 31
        0.000000
  0
LINE
  8
0
  6
CONTINUOUS
 10
      141.999992
 20
      -33.000008
 30
        0.000000
 11
      119.499992
 21
      -33.000008
 31
        0.000000
  0
LINE
  8
0
  6
CONTINUOUS
 10
      119.499992
 20
       32.999992
 30
        0.000000
 11
      119.499992
 21
      -33.000008
 31
        0.000000
  0
LINE
  8
0
  6
CONTINUOUS
 10
      138.999992
 20
       32.999992
 30
        0.000000
 11
      138.999992
 21
      -33.000008
 31
        0.000000
  0
LINE
  8
0
  6
CONTINUOUS
 10
      140.499992
 20
       32.999992
 30
        0.000000
 11
      140.499992
 21
      -33.000008
 31
        0.000000
  0
LINE
  8
0
  6
CONTINUOUS
 10
      137.499992
 20
       32.999992
 30
        0.000000
 11
      137.499992
 21
      -33.000008
 31
        0.000000
  0
LINE
  8
0
  6
CONTINUOUS
 10
      135.999992
 20
       32.999992
 30
        0.000000
 11
      135.999992
 21
      -33.000008
 31
        0.000000
  0
LINE
  8
0
  6
CONTINUOUS
 10
      132.999992
 20
       32.999992
 30
        0.000000
 11
      132.999992
 21
      -33.000008
 31
        0.000000
  0
LINE
  8
0
  6
CONTINUOUS
 10
      134.499992
 20
       32.999992
 30
        0.000000
 11
      134.499992
 21
      -33.000008
 31
        0.000000
  0
LINE
  8
0
  6
CONTINUOUS
 10
      131.499992
 20
       32.999992
 30
        0.000000
 11
      131.499992
 21
      -33.000008
 31
        0.000000
  0
LINE
  8
0
  6
CONTINUOUS
 10
      129.999992
 20
       32.999992
 30
        0.000000
 11
      129.999992
 21
      -33.000008
 31
        0.000000
  0
LINE
  8
0
  6
CONTINUOUS
 10
      126.999992
 20
       32.999992
 30
        0.000000
 11
      126.999992
 21
      -33.000008
 31
        0.000000
  0
LINE
  8
0
  6
CONTINUOUS
 10
      128.499992
 20
       32.999992
 30
        0.000000
 11
      128.499992
 21
      -33.000008
 31
        0.000000
  0
LINE
  8
0
  6
CONTINUOUS
 10
      125.499992
 20
       32.999992
 30
        0.000000
 11
      125.499992
 21
      -33.000008
 31
        0.000000
  0
LINE
  8
0
  6
CONTINUOUS
 10
      123.999992
 20
       32.999992
 30
        0.000000
 11
      123.999992
 21
      -33.000008
 31
        0.000000
  0
LINE
  8
0
  6
CONTINUOUS
 10
      120.999992
 20
       32.999992
 30
        0.000000
 11
      120.999992
 21
      -33.000008
 31
        0.000000
  0
LINE
  8
0
  6
CONTINUOUS
 10
      122.499992
 20
       32.999992
 30
        0.000000
 11
      122.499992
 21
      -33.000008
 31
        0.000000
  0
LINE
  8
0
 10
       23.000000
 20
       40.000000
 30
        0.000000
 11
       23.000000
 21
       45.000000
 31
        0.000000
  0
ARC
  8
0
 10
       27.000000
 20
       40.000000
 30
        0.000000
 40
        4.000000
 50
      179.999990
 51
      270.000000
  0
LINE
  8
0
 10
       32.000000
 20
       36.000000
 30
        0.000000
 11
       27.000000
 21
       36.000000
 31
        0.000000
  0
ARC
  8
0
 10
      -27.000000
 20
      -40.000000
 30
        0.000000
 40
        4.000000
 50
        0.000000
 51
       90.000000
  0
LINE
  8
0
 10
      -23.000000
 20
      -40.000000
 30
        0.000000
 11
      -23.000000
 21
      -45.000000
 31
        0.000000
  0
LINE
  8
0
 10
      -32.000000
 20
      -36.000000
 30
        0.000000
 11
      -27.000000
 21
      -36.000000
 31
        0.000000
  0
LINE
  8
0
  6
CONTINUOUS
 10
      -23.000015
 20
     -152.000008
 30
        0.000000
 11
      -32.000000
 21
     -152.000008
 31
        0.000000
  0
LINE
  8
0
  6
CONTINUOUS
 10
       24.000000
 20
     -152.000008
 30
        0.000000
 11
      -19.999982
 21
     -152.000008
 31
        0.000000
  0
LINE
  8
0
  6
CONTINUOUS
 10
       24.000000
 20
     -129.500008
 30
        0.000000
 11
       24.000000
 21
     -152.000008
 31
        0.000000
  0
LINE
  8
0
  6
CONTINUOUS
 10
       24.000000
 20
     -129.500008
 30
        0.000000
 11
      -19.999982
 21
     -129.500008
 31
        0.000000
  0
LINE
  8
0
  6
CONTINUOUS
 10
       24.000000
 20
     -150.500008
 30
        0.000000
 11
      -19.999982
 21
     -150.500008
 31
        0.000000
  0
LINE
  8
0
  6
CONTINUOUS
 10
       24.000000
 20
     -149.000008
 30
        0.000000
 11
      -19.999982
 21
     -149.000008
 31
        0.000000
  0
LINE
  8
0
  6
CONTINUOUS
 10
       24.000000
 20
     -147.500008
 30
        0.000000
 11
      -19.999982
 21
     -147.500008
 31
        0.000000
  0
LINE
  8
0
  6
CONTINUOUS
 10
       24.000000
 20
     -146.000008
 30
        0.000000
 11
      -19.999982
 21
     -146.000008
 31
        0.000000
  0
LINE
  8
0
  6
CONTINUOUS
 10
       24.000000
 20
     -144.500008
 30
        0.000000
 11
      -19.999982
 21
     -144.500008
 31
        0.000000
  0
LINE
  8
0
  6
CONTINUOUS
 10
       24.000000
 20
     -143.000008
 30
        0.000000
 11
      -19.999982
 21
     -143.000008
 31
        0.000000
  0
LINE
  8
0
  6
CONTINUOUS
 10
       24.000000
 20
     -141.500008
 30
        0.000000
 11
      -19.999982
 21
     -141.500008
 31
        0.000000
  0
LINE
  8
0
  6
CONTINUOUS
 10
       24.000000
 20
     -140.000008
 30
        0.000000
 11
      -19.999982
 21
     -140.000008
 31
        0.000000
  0
LINE
  8
0
  6
CONTINUOUS
 10
       24.000000
 20
     -138.500008
 30
        0.000000
 11
      -19.999982
 21
     -138.500008
 31
        0.000000
  0
LINE
  8
0
  6
CONTINUOUS
 10
       24.000000
 20
     -137.000008
 30
        0.000000
 11
      -19.999982
 21
     -137.000008
 31
        0.000000
  0
LINE
  8
0
  6
CONTINUOUS
 10
       24.000000
 20
     -135.500008
 30
        0.000000
 11
      -19.999982
 21
     -135.500008
 31
        0.000000
  0
LINE
  8
0
  6
CONTINUOUS
 10
       24.000000
 20
     -134.000008
 30
        0.000000
 11
      -19.999982
 21
     -134.000008
 31
        0.000000
  0
LINE
  8
0
  6
CONTINUOUS
 10
       24.000000
 20
     -132.500008
 30
        0.000000
 11
      -19.999982
 21
     -132.500008
 31
        0.000000
  0
LINE
  8
0
  6
CONTINUOUS
 10
       24.000000
 20
     -131.000008
 30
        0.000000
 11
      -19.999982
 21
     -131.000008
 31
        0.000000
  0
LINE
  8
0
  6
CONTINUOUS
 10
      -19.999982
 20
     -129.500008
 30
        0.000000
 11
      -19.999982
 21
     -152.000008
 31
        0.000000
  0
LINE
  8
0
  6
CONTINUOUS
 10
      -32.000000
 20
     -160.000008
 30
        0.000000
 11
      -32.000000
 21
     -103.500015
 31
        0.000000
  0
LINE
  8
0
  6
CONTINUOUS
 10
      149.999992
 20
      -45.000015
 30
        0.000000
 11
       93.499992
 21
      -45.000015
 31
        0.000000
  0
LINE
  8
0
  6
CONTINUOUS
 10
      119.499992
 20
       32.999992
 30
        0.000000
 11
      141.999992
 21
       32.999992
 31
        0.000000
  0
LINE
  8
0
  6
CONTINUOUS
 10
      149.999992
 20
       45.000000
 30
        0.000000
 11
       93.499992
 21
       45.000000
 31
        0.000000
  0
CIRCLE
  8
0
 10
      -27.000000
 20
      -40.000000
 30
        0.000000
 40
        2.250000
  0
CIRCLE
  8
0
 10
       27.000000
 20
       40.000000
 30
        0.000000
 40
        2.250000
  0
LINE
  8
0
  6
CONTINUOUS
 10
      -13.144987
 20
     -107.200015
 30
        0.000000
 11
      -13.144987
 21
     -108.700015
 31
        0.000000
  0
LINE
  8
0
  6
CONTINUOUS
 10
      -17.144987
 20
     -107.200015
 30
        0.000000
 11
      -17.144987
 21
     -108.700015
 31
        0.000000
  0
LINE
  8
0
  6
CONTINUOUS
 10
      -18.194975
 20
     -107.200015
 30
        0.000000
 11
      -12.094984
 21
     -107.200015
 31
        0.000000
  0
LINE
  8
0
  6
CONTINUOUS
 10
      -18.194975
 20
     -106.700015
 30
        0.000000
 11
      -12.094984
 21
     -106.700015
 31
        0.000000
  0
LINE
  8
0
  6
CONTINUOUS
 10
      -17.144987
 20
     -108.700015
 30
        0.000000
 11
      -13.144987
 21
     -108.700015
 31
        0.000000
  0
LINE
  8
0
  6
CONTINUOUS
 10
       -5.524992
 20
     -107.200015
 30
        0.000000
 11
       -5.524992
 21
     -108.700015
 31
        0.000000
  0
LINE
  8
0
  6
CONTINUOUS
 10
       -9.524992
 20
     -107.200015
 30
        0.000000
 11
       -9.524992
 21
     -108.700015
 31
        0.000000
  0
LINE
  8
0
  6
CONTINUOUS
 10
      -10.574980
 20
     -107.200015
 30
        0.000000
 11
       -4.474989
 21
     -107.200015
 31
        0.000000
  0
LINE
  8
0
  6
CONTINUOUS
 10
      -10.574980
 20
     -106.700015
 30
        0.000000
 11
       -4.474989
 21
     -106.700015
 31
        0.000000
  0
LINE
  8
0
  6
CONTINUOUS
 10
       -9.524992
 20
     -108.700015
 30
        0.000000
 11
       -5.524992
 21
     -108.700015
 31
        0.000000
  0
LINE
  8
0
  6
CONTINUOUS
 10
      -18.194975
 20
     -109.200015
 30
        0.000000
 11
      -12.094984
 21
     -109.200015
 31
        0.000000
  0
LINE
  8
0
  6
CONTINUOUS
 10
      -10.574980
 20
     -109.200015
 30
        0.000000
 11
       -4.474989
 21
     -109.200015
 31
        0.000000
  0
LINE
  8
0
  6
CONTINUOUS
 10
      -13.335020
 20
     -112.700015
 30
        0.000000
 11
       -9.335020
 21
     -112.700015
 31
        0.000000
  0
LINE
  8
0
  6
CONTINUOUS
 10
      -13.335020
 20
     -111.700015
 30
        0.000000
 11
      -13.335020
 21
     -112.700015
 31
        0.000000
  0
LINE
  8
0
  6
CONTINUOUS
 10
       -9.335020
 20
     -111.700015
 30
        0.000000
 11
       -9.335020
 21
     -112.700015
 31
        0.000000
  0
LINE
  8
0
  6
CONTINUOUS
 10
      -12.835020
 20
     -111.200015
 30
        0.000000
 11
      -11.585020
 21
     -111.200015
 31
        0.000000
  0
ARC
  8
0
  6
CONTINUOUS
 10
      -12.835020
 20
     -111.700015
 30
        0.000000
 40
        0.500000
 50
       90.000000
 51
      180.000015
  0
LINE
  8
0
  6
CONTINUOUS
 10
      -11.585020
 20
     -111.200015
 30
        0.000000
 11
      -11.585020
 21
     -111.700015
 31
        0.000000
  0
LINE
  8
0
  6
CONTINUOUS
 10
      -14.385023
 20
     -114.200015
 30
        0.000000
 11
       -8.285017
 21
     -114.200015
 31
        0.000000
  0
LINE
  8
0
  6
CONTINUOUS
 10
      -14.385023
 20
     -113.200015
 30
        0.000000
 11
       -8.285017
 21
     -113.200015
 31
        0.000000
  0
LINE
  8
0
  6
CONTINUOUS
 10
      -14.385023
 20
     -114.700015
 30
        0.000000
 11
       -8.285017
 21
     -114.700015
 31
        0.000000
  0
LINE
  8
0
  6
CONTINUOUS
 10
      -13.335020
 20
     -117.200015
 30
        0.000000
 11
       -9.335020
 21
     -117.200015
 31
        0.000000
  0
LINE
  8
0
  6
CONTINUOUS
 10
      -13.335020
 20
     -115.200015
 30
        0.000000
 11
      -13.335020
 21
     -117.200015
 31
        0.000000
  0
LINE
  8
0
  6
CONTINUOUS
 10
       -9.335020
 20
     -115.200015
 30
        0.000000
 11
       -9.335020
 21
     -117.200015
 31
        0.000000
  0
LINE
  8
0
  6
CONTINUOUS
 10
      -14.385023
 20
     -115.200015
 30
        0.000000
 11
       -8.285017
 21
     -115.200015
 31
        0.000000
  0
LINE
  8
0
  6
CONTINUOUS
 10
      -14.385023
 20
     -115.200015
 30
        0.000000
 11
      -14.385023
 21
     -109.200015
 31
        0.000000
  0
LINE
  8
0
  6
CONTINUOUS
 10
       -8.285017
 20
     -115.200015
 30
        0.000000
 11
       -8.285017
 21
     -109.200015
 31
        0.000000
  0
LINE
  8
0
  6
CONTINUOUS
 10
      -12.835020
 20
     -112.700015
 30
        0.000000
 11
      -12.835020
 21
     -113.200015
 31
        0.000000
  0
LINE
  8
0
  6
CONTINUOUS
 10
       -9.835020
 20
     -112.700015
 30
        0.000000
 11
       -9.835020
 21
     -113.200015
 31
        0.000000
  0
ARC
  8
0
  6
CONTINUOUS
 10
       -9.835020
 20
     -111.700015
 30
        0.000000
 40
        0.500000
 50
        0.000000
 51
       90.000000
  0
LINE
  8
0
  6
CONTINUOUS
 10
      -11.085020
 20
     -111.200015
 30
        0.000000
 11
       -9.835020
 21
     -111.200015
 31
        0.000000
  0
LINE
  8
0
  6
CONTINUOUS
 10
      -11.085020
 20
     -111.200015
 30
        0.000000
 11
      -11.085020
 21
     -111.700015
 31
        0.000000
  0
LINE
  8
0
  6
CONTINUOUS
 10
      -11.585020
 20
     -111.700015
 30
        0.000000
 11
      -11.085020
 21
     -111.700015
 31
        0.000000
  0
LINE
  8
0
  6
CONTINUOUS
 10
       -5.715025
 20
     -112.700015
 30
        0.000000
 11
       -1.715025
 21
     -112.700015
 31
        0.000000
  0
LINE
  8
0
  6
CONTINUOUS
 10
       -5.715025
 20
     -111.700015
 30
        0.000000
 11
       -5.715025
 21
     -112.700015
 31
        0.000000
  0
LINE
  8
0
  6
CONTINUOUS
 10
       -1.715025
 20
     -111.700015
 30
        0.000000
 11
       -1.715025
 21
     -112.700015
 31
        0.000000
  0
LINE
  8
0
  6
CONTINUOUS
 10
       -5.215025
 20
     -111.200015
 30
        0.000000
 11
       -3.965025
 21
     -111.200015
 31
        0.000000
  0
ARC
  8
0
  6
CONTINUOUS
 10
       -5.215025
 20
     -111.700015
 30
        0.000000
 40
        0.500000
 50
       90.000000
 51
      180.000015
  0
LINE
  8
0
  6
CONTINUOUS
 10
       -3.965025
 20
     -111.200015
 30
        0.000000
 11
       -3.965025
 21
     -111.700015
 31
        0.000000
  0
LINE
  8
0
  6
CONTINUOUS
 10
       -6.765028
 20
     -114.200015
 30
        0.000000
 11
       -0.665022
 21
     -114.200015
 31
        0.000000
  0
LINE
  8
0
  6
CONTINUOUS
 10
       -6.765028
 20
     -113.200015
 30
        0.000000
 11
       -0.665022
 21
     -113.200015
 31
        0.000000
  0
LINE
  8
0
  6
CONTINUOUS
 10
       -6.765028
 20
     -114.700015
 30
        0.000000
 11
       -0.665022
 21
     -114.700015
 31
        0.000000
  0
LINE
  8
0
  6
CONTINUOUS
 10
       -5.715025
 20
     -117.200015
 30
        0.000000
 11
       -1.715025
 21
     -117.200015
 31
        0.000000
  0
LINE
  8
0
  6
CONTINUOUS
 10
       -5.715025
 20
     -115.200015
 30
        0.000000
 11
       -5.715025
 21
     -117.200015
 31
        0.000000
  0
LINE
  8
0
  6
CONTINUOUS
 10
       -1.715025
 20
     -115.200015
 30
        0.000000
 11
       -1.715025
 21
     -117.200015
 31
        0.000000
  0
LINE
  8
0
  6
CONTINUOUS
 10
       -6.765028
 20
     -115.200015
 30
        0.000000
 11
       -0.665022
 21
     -115.200015
 31
        0.000000
  0
LINE
  8
0
  6
CONTINUOUS
 10
       -6.765028
 20
     -115.200015
 30
        0.000000
 11
       -6.765028
 21
     -109.200015
 31
        0.000000
  0
LINE
  8
0
  6
CONTINUOUS
 10
       -0.665022
 20
     -115.200015
 30
        0.000000
 11
       -0.665022
 21
     -109.200015
 31
        0.000000
  0
LINE
  8
0
  6
CONTINUOUS
 10
       -5.215025
 20
     -112.700015
 30
        0.000000
 11
       -5.215025
 21
     -113.200015
 31
        0.000000
  0
LINE
  8
0
  6
CONTINUOUS
 10
       -2.215025
 20
     -112.700015
 30
        0.000000
 11
       -2.215025
 21
     -113.200015
 31
        0.000000
  0
ARC
  8
0
  6
CONTINUOUS
 10
       -2.215025
 20
     -111.700015
 30
        0.000000
 40
        0.500000
 50
        0.000000
 51
       90.000000
  0
LINE
  8
0
  6
CONTINUOUS
 10
       -3.465025
 20
     -111.200015
 30
        0.000000
 11
       -2.215025
 21
     -111.200015
 31
        0.000000
  0
LINE
  8
0
  6
CONTINUOUS
 10
       -3.465025
 20
     -111.200015
 30
        0.000000
 11
       -3.465025
 21
     -111.700015
 31
        0.000000
  0
LINE
  8
0
  6
CONTINUOUS
 10
       -3.965025
 20
     -111.700015
 30
        0.000000
 11
       -3.465025
 21
     -111.700015
 31
        0.000000
  0
LINE
  8
0
  6
CONTINUOUS
 10
        3.654970
 20
     -111.700015
 30
        0.000000
 11
        4.154970
 21
     -111.700015
 31
        0.000000
  0
LINE
  8
0
  6
CONTINUOUS
 10
        4.154970
 20
     -111.200015
 30
        0.000000
 11
        4.154970
 21
     -111.700015
 31
        0.000000
  0
LINE
  8
0
  6
CONTINUOUS
 10
        4.154970
 20
     -111.200015
 30
        0.000000
 11
        5.404970
 21
     -111.200015
 31
        0.000000
  0
ARC
  8
0
  6
CONTINUOUS
 10
        5.404970
 20
     -111.700015
 30
        0.000000
 40
        0.500000
 50
        0.000000
 51
       90.000000
  0
LINE
  8
0
  6
CONTINUOUS
 10
        5.404970
 20
     -112.700015
 30
        0.000000
 11
        5.404970
 21
     -113.200015
 31
        0.000000
  0
LINE
  8
0
  6
CONTINUOUS
 10
        2.404970
 20
     -112.700015
 30
        0.000000
 11
        2.404970
 21
     -113.200015
 31
        0.000000
  0
LINE
  8
0
  6
CONTINUOUS
 10
        6.954973
 20
     -115.200015
 30
        0.000000
 11
        6.954973
 21
     -109.200015
 31
        0.000000
  0
LINE
  8
0
  6
CONTINUOUS
 10
        0.854967
 20
     -115.200015
 30
        0.000000
 11
        0.854967
 21
     -109.200015
 31
        0.000000
  0
LINE
  8
0
  6
CONTINUOUS
 10
        0.854967
 20
     -115.200015
 30
        0.000000
 11
        6.954973
 21
     -115.200015
 31
        0.000000
  0
LINE
  8
0
  6
CONTINUOUS
 10
        5.904970
 20
     -115.200015
 30
        0.000000
 11
        5.904970
 21
     -117.200015
 31
        0.000000
  0
LINE
  8
0
  6
CONTINUOUS
 10
        1.904970
 20
     -115.200015
 30
        0.000000
 11
        1.904970
 21
     -117.200015
 31
        0.000000
  0
LINE
  8
0
  6
CONTINUOUS
 10
        1.904970
 20
     -117.200015
 30
        0.000000
 11
        5.904970
 21
     -117.200015
 31
        0.000000
  0
LINE
  8
0
  6
CONTINUOUS
 10
        0.854967
 20
     -114.700015
 30
        0.000000
 11
        6.954973
 21
     -114.700015
 31
        0.000000
  0
LINE
  8
0
  6
CONTINUOUS
 10
        0.854967
 20
     -113.200015
 30
        0.000000
 11
        6.954973
 21
     -113.200015
 31
        0.000000
  0
LINE
  8
0
  6
CONTINUOUS
 10
        0.854967
 20
     -114.200015
 30
        0.000000
 11
        6.954973
 21
     -114.200015
 31
        0.000000
  0
LINE
  8
0
  6
CONTINUOUS
 10
        3.654970
 20
     -111.200015
 30
        0.000000
 11
        3.654970
 21
     -111.700015
 31
        0.000000
  0
ARC
  8
0
  6
CONTINUOUS
 10
        2.404970
 20
     -111.700015
 30
        0.000000
 40
        0.500000
 50
       90.000000
 51
      180.000015
  0
LINE
  8
0
  6
CONTINUOUS
 10
        2.404970
 20
     -111.200015
 30
        0.000000
 11
        3.654970
 21
     -111.200015
 31
        0.000000
  0
LINE
  8
0
  6
CONTINUOUS
 10
        5.904970
 20
     -111.700015
 30
        0.000000
 11
        5.904970
 21
     -112.700015
 31
        0.000000
  0
LINE
  8
0
  6
CONTINUOUS
 10
        1.904970
 20
     -111.700015
 30
        0.000000
 11
        1.904970
 21
     -112.700015
 31
        0.000000
  0
LINE
  8
0
  6
CONTINUOUS
 10
        1.904970
 20
     -112.700015
 30
        0.000000
 11
        5.904970
 21
     -112.700015
 31
        0.000000
  0
LINE
  8
0
  6
CONTINUOUS
 10
       -2.954985
 20
     -109.200015
 30
        0.000000
 11
        3.145006
 21
     -109.200015
 31
        0.000000
  0
LINE
  8
0
  6
CONTINUOUS
 10
       -1.904997
 20
     -108.700015
 30
        0.000000
 11
        2.095003
 21
     -108.700015
 31
        0.000000
  0
LINE
  8
0
  6
CONTINUOUS
 10
       -2.954985
 20
     -106.700015
 30
        0.000000
 11
        3.145006
 21
     -106.700015
 31
        0.000000
  0
LINE
  8
0
  6
CONTINUOUS
 10
       -2.954985
 20
     -107.200015
 30
        0.000000
 11
        3.145006
 21
     -107.200015
 31
        0.000000
  0
LINE
  8
0
  6
CONTINUOUS
 10
       -1.904997
 20
     -107.200015
 30
        0.000000
 11
       -1.904997
 21
     -108.700015
 31
        0.000000
  0
LINE
  8
0
  6
CONTINUOUS
 10
        2.095003
 20
     -107.200015
 30
        0.000000
 11
        2.095003
 21
     -108.700015
 31
        0.000000
  0
LINE
  8
0
  6
CONTINUOUS
 10
       11.274980
 20
     -111.700015
 30
        0.000000
 11
       11.774980
 21
     -111.700015
 31
        0.000000
  0
LINE
  8
0
  6
CONTINUOUS
 10
       11.774980
 20
     -111.200015
 30
        0.000000
 11
       11.774980
 21
     -111.700015
 31
        0.000000
  0
LINE
  8
0
  6
CONTINUOUS
 10
       11.774980
 20
     -111.200015
 30
        0.000000
 11
       13.024980
 21
     -111.200015
 31
        0.000000
  0
ARC
  8
0
  6
CONTINUOUS
 10
       13.024980
 20
     -111.700015
 30
        0.000000
 40
        0.500000
 50
        0.000000
 51
       90.000000
  0
LINE
  8
0
  6
CONTINUOUS
 10
       13.024980
 20
     -112.700015
 30
        0.000000
 11
       13.024980
 21
     -113.200015
 31
        0.000000
  0
LINE
  8
0
  6
CONTINUOUS
 10
       10.024980
 20
     -112.700015
 30
        0.000000
 11
       10.024980
 21
     -113.200015
 31
        0.000000
  0
LINE
  8
0
  6
CONTINUOUS
 10
       14.574983
 20
     -115.200015
 30
        0.000000
 11
       14.574983
 21
     -109.200015
 31
        0.000000
  0
LINE
  8
0
  6
CONTINUOUS
 10
        8.474977
 20
     -115.200015
 30
        0.000000
 11
        8.474977
 21
     -109.200015
 31
        0.000000
  0
LINE
  8
0
  6
CONTINUOUS
 10
        8.474977
 20
     -115.200015
 30
        0.000000
 11
       14.574983
 21
     -115.200015
 31
        0.000000
  0
LINE
  8
0
  6
CONTINUOUS
 10
       13.524980
 20
     -115.200015
 30
        0.000000
 11
       13.524980
 21
     -117.200015
 31
        0.000000
  0
LINE
  8
0
  6
CONTINUOUS
 10
        9.524980
 20
     -115.200015
 30
        0.000000
 11
        9.524980
 21
     -117.200015
 31
        0.000000
  0
LINE
  8
0
  6
CONTINUOUS
 10
        9.524980
 20
     -117.200015
 30
        0.000000
 11
       13.524980
 21
     -117.200015
 31
        0.000000
  0
LINE
  8
0
  6
CONTINUOUS
 10
        8.474977
 20
     -114.700015
 30
        0.000000
 11
       14.574983
 21
     -114.700015
 31
        0.000000
  0
LINE
  8
0
  6
CONTINUOUS
 10
        8.474977
 20
     -113.200015
 30
        0.000000
 11
       14.574983
 21
     -113.200015
 31
        0.000000
  0
LINE
  8
0
  6
CONTINUOUS
 10
        8.474977
 20
     -114.200015
 30
        0.000000
 11
       14.574983
 21
     -114.200015
 31
        0.000000
  0
LINE
  8
0
  6
CONTINUOUS
 10
       11.274980
 20
     -111.200015
 30
        0.000000
 11
       11.274980
 21
     -111.700015
 31
        0.000000
  0
ARC
  8
0
  6
CONTINUOUS
 10
       10.024980
 20
     -111.700015
 30
        0.000000
 40
        0.500000
 50
       90.000000
 51
      180.000015
  0
LINE
  8
0
  6
CONTINUOUS
 10
       10.024980
 20
     -111.200015
 30
        0.000000
 11
       11.274980
 21
     -111.200015
 31
        0.000000
  0
LINE
  8
0
  6
CONTINUOUS
 10
       13.524980
 20
     -111.700015
 30
        0.000000
 11
       13.524980
 21
     -112.700015
 31
        0.000000
  0
LINE
  8
0
  6
CONTINUOUS
 10
        9.524980
 20
     -111.700015
 30
        0.000000
 11
        9.524980
 21
     -112.700015
 31
        0.000000
  0
LINE
  8
0
  6
CONTINUOUS
 10
        9.524980
 20
     -112.700015
 30
        0.000000
 11
       13.524980
 21
     -112.700015
 31
        0.000000
  0
LINE
  8
0
  6
CONTINUOUS
 10
        4.665025
 20
     -109.200015
 30
        0.000000
 11
       10.765016
 21
     -109.200015
 31
        0.000000
  0
LINE
  8
0
  6
CONTINUOUS
 10
        5.715013
 20
     -108.700015
 30
        0.000000
 11
        9.715013
 21
     -108.700015
 31
        0.000000
  0
LINE
  8
0
  6
CONTINUOUS
 10
        4.665025
 20
     -106.700015
 30
        0.000000
 11
       10.765016
 21
     -106.700015
 31
        0.000000
  0
LINE
  8
0
  6
CONTINUOUS
 10
        4.665025
 20
     -107.200015
 30
        0.000000
 11
       10.765016
 21
     -107.200015
 31
        0.000000
  0
LINE
  8
0
  6
CONTINUOUS
 10
        5.715013
 20
     -107.200015
 30
        0.000000
 11
        5.715013
 21
     -108.700015
 31
        0.000000
  0
LINE
  8
0
  6
CONTINUOUS
 10
        9.715013
 20
     -107.200015
 30
        0.000000
 11
        9.715013
 21
     -108.700015
 31
        0.000000
  0
LINE
  8
0
  6
CONTINUOUS
 10
       18.894975
 20
     -111.700015
 30
        0.000000
 11
       19.394975
 21
     -111.700015
 31
        0.000000
  0
LINE
  8
0
  6
CONTINUOUS
 10
       19.394975
 20
     -111.200015
 30
        0.000000
 11
       19.394975
 21
     -111.700015
 31
        0.000000
  0
LINE
  8
0
  6
CONTINUOUS
 10
       19.394975
 20
     -111.200015
 30
        0.000000
 11
       20.644975
 21
     -111.200015
 31
        0.000000
  0
ARC
  8
0
  6
CONTINUOUS
 10
       20.644975
 20
     -111.700015
 30
        0.000000
 40
        0.500000
 50
        0.000000
 51
       90.000000
  0
LINE
  8
0
  6
CONTINUOUS
 10
       20.644975
 20
     -112.700015
 30
        0.000000
 11
       20.644975
 21
     -113.200015
 31
        0.000000
  0
LINE
  8
0
  6
CONTINUOUS
 10
       17.644975
 20
     -112.700015
 30
        0.000000
 11
       17.644975
 21
     -113.200015
 31
        0.000000
  0
LINE
  8
0
  6
CONTINUOUS
 10
       16.094972
 20
     -115.200015
 30
        0.000000
 11
       16.094972
 21
     -109.200015
 31
        0.000000
  0
LINE
  8
0
  6
CONTINUOUS
 10
       16.094972
 20
     -115.200015
 30
        0.000000
 11
       22.194978
 21
     -115.200015
 31
        0.000000
  0
LINE
  8
0
  6
CONTINUOUS
 10
       21.144975
 20
     -115.200015
 30
        0.000000
 11
       21.144975
 21
     -117.200015
 31
        0.000000
  0
LINE
  8
0
  6
CONTINUOUS
 10
       17.144975
 20
     -115.200015
 30
        0.000000
 11
       17.144975
 21
     -117.200015
 31
        0.000000
  0
LINE
  8
0
  6
CONTINUOUS
 10
       17.144975
 20
     -117.200015
 30
        0.000000
 11
       21.144975
 21
     -117.200015
 31
        0.000000
  0
LINE
  8
0
  6
CONTINUOUS
 10
       16.094972
 20
     -114.700015
 30
        0.000000
 11
       22.194978
 21
     -114.700015
 31
        0.000000
  0
LINE
  8
0
  6
CONTINUOUS
 10
       16.094972
 20
     -113.200015
 30
        0.000000
 11
       22.194978
 21
     -113.200015
 31
        0.000000
  0
LINE
  8
0
  6
CONTINUOUS
 10
       16.094972
 20
     -114.200015
 30
        0.000000
 11
       22.194978
 21
     -114.200015
 31
        0.000000
  0
LINE
  8
0
  6
CONTINUOUS
 10
       18.894975
 20
     -111.200015
 30
        0.000000
 11
       18.894975
 21
     -111.700015
 31
        0.000000
  0
ARC
  8
0
  6
CONTINUOUS
 10
       17.644975
 20
     -111.700015
 30
        0.000000
 40
        0.500000
 50
       90.000000
 51
      180.000015
  0
LINE
  8
0
  6
CONTINUOUS
 10
       17.644975
 20
     -111.200015
 30
        0.000000
 11
       18.894975
 21
     -111.200015
 31
        0.000000
  0
LINE
  8
0
  6
CONTINUOUS
 10
       21.144975
 20
     -111.700015
 30
        0.000000
 11
       21.144975
 21
     -112.700015
 31
        0.000000
  0
LINE
  8
0
  6
CONTINUOUS
 10
       17.144975
 20
     -111.700015
 30
        0.000000
 11
       17.144975
 21
     -112.700015
 31
        0.000000
  0
LINE
  8
0
  6
CONTINUOUS
 10
       17.144975
 20
     -112.700015
 30
        0.000000
 11
       21.144975
 21
     -112.700015
 31
        0.000000
  0
LINE
  8
0
  6
CONTINUOUS
 10
       12.285020
 20
     -109.200015
 30
        0.000000
 11
       18.385011
 21
     -109.200015
 31
        0.000000
  0
LINE
  8
0
  6
CONTINUOUS
 10
       13.335008
 20
     -108.700015
 30
        0.000000
 11
       17.335008
 21
     -108.700015
 31
        0.000000
  0
LINE
  8
0
  6
CONTINUOUS
 10
       12.285020
 20
     -106.700015
 30
        0.000000
 11
       18.385011
 21
     -106.700015
 31
        0.000000
  0
LINE
  8
0
  6
CONTINUOUS
 10
       12.285020
 20
     -107.200015
 30
        0.000000
 11
       18.385011
 21
     -107.200015
 31
        0.000000
  0
LINE
  8
0
  6
CONTINUOUS
 10
       13.335008
 20
     -107.200015
 30
        0.000000
 11
       13.335008
 21
     -108.700015
 31
        0.000000
  0
LINE
  8
0
  6
CONTINUOUS
 10
       17.335008
 20
     -107.200015
 30
        0.000000
 11
       17.335008
 21
     -108.700015
 31
        0.000000
  0
LINE
  8
0
  6
CONTINUOUS
 10
      -15.905013
 20
     -115.200015
 30
        0.000000
 11
      -15.905013
 21
     -109.200015
 31
        0.000000
  0
LINE
  8
0
  6
CONTINUOUS
 10
      -18.194975
 20
     -115.200015
 30
        0.000000
 11
      -15.905013
 21
     -115.200015
 31
        0.000000
  0
LINE
  8
0
  6
CONTINUOUS
 10
      -18.195006
 20
     -115.200015
 30
        0.000000
 11
      -18.195006
 21
     -100.200015
 31
        0.000000
  0
LINE
  8
0
  6
CONTINUOUS
 10
      -19.849982
 20
     -120.200015
 30
        0.000000
 11
      -19.849982
 21
     -100.200015
 31
        0.000000
  0
LINE
  8
0
  6
CONTINUOUS
 10
      -19.849982
 20
     -100.200015
 30
        0.000000
 11
      -18.195006
 21
     -100.200015
 31
        0.000000
  0
LINE
  8
0
  6
CONTINUOUS
 10
      -12.094984
 20
     -100.200015
 30
        0.000000
 11
      -10.575011
 21
     -100.200015
 31
        0.000000
  0
LINE
  8
0
  6
CONTINUOUS
 10
       -4.474989
 20
     -100.200015
 30
        0.000000
 11
       -2.955016
 21
     -100.200015
 31
        0.000000
  0
LINE
  8
0
  6
CONTINUOUS
 10
        3.145021
 20
     -100.200015
 30
        0.000000
 11
        4.664995
 21
     -100.200015
 31
        0.000000
  0
LINE
  8
0
  6
CONTINUOUS
 10
       10.765016
 20
     -100.200015
 30
        0.000000
 11
       12.284990
 21
     -100.200015
 31
        0.000000
  0
ARC
  8
0
  6
CONTINUOUS
 10
      -13.644987
 20
     -103.700015
 30
        0.000000
 40
        0.500000
 50
        0.000000
 51
       90.000000
  0
LINE
  8
0
  6
CONTINUOUS
 10
      -14.894987
 20
     -103.200015
 30
        0.000000
 11
      -14.894987
 21
     -103.700015
 31
        0.000000
  0
LINE
  8
0
  6
CONTINUOUS
 10
      -14.894987
 20
     -103.200015
 30
        0.000000
 11
      -13.644987
 21
     -103.200015
 31
        0.000000
  0
LINE
  8
0
  6
CONTINUOUS
 10
      -13.644987
 20
     -104.700015
 30
        0.000000
 11
      -13.644987
 21
     -105.200015
 31
        0.000000
  0
LINE
  8
0
  6
CONTINUOUS
 10
      -16.644987
 20
     -103.200015
 30
        0.000000
 11
      -15.394987
 21
     -103.200015
 31
        0.000000
  0
ARC
  8
0
  6
CONTINUOUS
 10
      -16.644987
 20
     -103.700015
 30
        0.000000
 40
        0.500000
 50
       90.000000
 51
      180.000015
  0
LINE
  8
0
  6
CONTINUOUS
 10
      -17.144987
 20
     -103.700015
 30
        0.000000
 11
      -17.144987
 21
     -104.700015
 31
        0.000000
  0
LINE
  8
0
  6
CONTINUOUS
 10
      -15.394987
 20
     -103.200015
 30
        0.000000
 11
      -15.394987
 21
     -103.700015
 31
        0.000000
  0
LINE
  8
0
  6
CONTINUOUS
 10
      -16.644987
 20
     -104.700015
 30
        0.000000
 11
      -16.644987
 21
     -105.200015
 31
        0.000000
  0
LINE
  8
0
  6
CONTINUOUS
 10
      -17.144987
 20
     -104.700015
 30
        0.000000
 11
      -13.144987
 21
     -104.700015
 31
        0.000000
  0
LINE
  8
0
  6
CONTINUOUS
 10
      -18.194975
 20
     -106.200015
 30
        0.000000
 11
      -12.094984
 21
     -106.200015
 31
        0.000000
  0
LINE
  8
0
  6
CONTINUOUS
 10
      -18.194975
 20
     -105.200015
 30
        0.000000
 11
      -12.094984
 21
     -105.200015
 31
        0.000000
  0
LINE
  8
0
  6
CONTINUOUS
 10
      -15.394987
 20
     -103.700015
 30
        0.000000
 11
      -14.894987
 21
     -103.700015
 31
        0.000000
  0
LINE
  8
0
  6
CONTINUOUS
 10
      -18.194975
 20
     -107.200015
 30
        0.000000
 11
      -18.194975
 21
     -100.200015
 31
        0.000000
  0
LINE
  8
0
  6
CONTINUOUS
 10
      -18.194975
 20
     -101.200015
 30
        0.000000
 11
      -12.094984
 21
     -101.200015
 31
        0.000000
  0
LINE
  8
0
  6
CONTINUOUS
 10
       -5.524992
 20
     -103.700015
 30
        0.000000
 11
       -5.524992
 21
     -104.700015
 31
        0.000000
  0
ARC
  8
0
  6
CONTINUOUS
 10
       -6.024992
 20
     -103.700015
 30
        0.000000
 40
        0.500000
 50
        0.000000
 51
       90.000000
  0
LINE
  8
0
  6
CONTINUOUS
 10
       -7.274992
 20
     -103.200015
 30
        0.000000
 11
       -7.274992
 21
     -103.700015
 31
        0.000000
  0
LINE
  8
0
  6
CONTINUOUS
 10
       -7.274992
 20
     -103.200015
 30
        0.000000
 11
       -6.024992
 21
     -103.200015
 31
        0.000000
  0
LINE
  8
0
  6
CONTINUOUS
 10
       -6.024992
 20
     -104.700015
 30
        0.000000
 11
       -6.024992
 21
     -105.200015
 31
        0.000000
  0
LINE
  8
0
  6
CONTINUOUS
 10
       -9.024992
 20
     -103.200015
 30
        0.000000
 11
       -7.774992
 21
     -103.200015
 31
        0.000000
  0
ARC
  8
0
  6
CONTINUOUS
 10
       -9.024992
 20
     -103.700015
 30
        0.000000
 40
        0.500000
 50
       90.000000
 51
      180.000015
  0
LINE
  8
0
  6
CONTINUOUS
 10
       -9.524992
 20
     -103.700015
 30
        0.000000
 11
       -9.524992
 21
     -104.700015
 31
        0.000000
  0
LINE
  8
0
  6
CONTINUOUS
 10
       -7.774992
 20
     -103.200015
 30
        0.000000
 11
       -7.774992
 21
     -103.700015
 31
        0.000000
  0
LINE
  8
0
  6
CONTINUOUS
 10
       -9.024992
 20
     -104.700015
 30
        0.000000
 11
       -9.024992
 21
     -105.200015
 31
        0.000000
  0
LINE
  8
0
  6
CONTINUOUS
 10
       -9.524992
 20
     -104.700015
 30
        0.000000
 11
       -5.524992
 21
     -104.700015
 31
        0.000000
  0
LINE
  8
0
  6
CONTINUOUS
 10
      -10.574980
 20
     -106.200015
 30
        0.000000
 11
       -4.474989
 21
     -106.200015
 31
        0.000000
  0
LINE
  8
0
  6
CONTINUOUS
 10
      -10.574980
 20
     -105.200015
 30
        0.000000
 11
       -4.474989
 21
     -105.200015
 31
        0.000000
  0
LINE
  8
0
  6
CONTINUOUS
 10
       -7.774992
 20
     -103.700015
 30
        0.000000
 11
       -7.274992
 21
     -103.700015
 31
        0.000000
  0
LINE
  8
0
  6
CONTINUOUS
 10
      -10.575011
 20
     -109.200015
 30
        0.000000
 11
      -10.575011
 21
     -100.200015
 31
        0.000000
  0
LINE
  8
0
  6
CONTINUOUS
 10
      -10.574980
 20
     -101.200015
 30
        0.000000
 11
       -4.474989
 21
     -101.200015
 31
        0.000000
  0
LINE
  8
0
  6
CONTINUOUS
 10
      -13.144987
 20
     -103.700015
 30
        0.000000
 11
      -13.144987
 21
     -104.700015
 31
        0.000000
  0
LINE
  8
0
  6
CONTINUOUS
 10
      -12.094984
 20
     -109.200015
 30
        0.000000
 11
      -12.094984
 21
     -100.200015
 31
        0.000000
  0
LINE
  8
0
  6
CONTINUOUS
 10
       -4.474989
 20
     -109.200015
 30
        0.000000
 11
       -4.474989
 21
     -100.200015
 31
        0.000000
  0
LINE
  8
0
  6
CONTINUOUS
 10
        3.145006
 20
     -109.200015
 30
        0.000000
 11
        3.145006
 21
     -100.200015
 31
        0.000000
  0
LINE
  8
0
  6
CONTINUOUS
 10
       -2.954985
 20
     -101.200015
 30
        0.000000
 11
        3.145006
 21
     -101.200015
 31
        0.000000
  0
LINE
  8
0
  6
CONTINUOUS
 10
       -2.955016
 20
     -109.200015
 30
        0.000000
 11
       -2.955016
 21
     -100.200015
 31
        0.000000
  0
LINE
  8
0
  6
CONTINUOUS
 10
       -0.154997
 20
     -103.700015
 30
        0.000000
 11
        0.345003
 21
     -103.700015
 31
        0.000000
  0
LINE
  8
0
  6
CONTINUOUS
 10
       -2.954985
 20
     -105.200015
 30
        0.000000
 11
        3.145006
 21
     -105.200015
 31
        0.000000
  0
LINE
  8
0
  6
CONTINUOUS
 10
       -2.954985
 20
     -106.200015
 30
        0.000000
 11
        3.145006
 21
     -106.200015
 31
        0.000000
  0
LINE
  8
0
  6
CONTINUOUS
 10
       -1.904997
 20
     -104.700015
 30
        0.000000
 11
        2.095003
 21
     -104.700015
 31
        0.000000
  0
LINE
  8
0
  6
CONTINUOUS
 10
       -1.404997
 20
     -104.700015
 30
        0.000000
 11
       -1.404997
 21
     -105.200015
 31
        0.000000
  0
LINE
  8
0
  6
CONTINUOUS
 10
       -0.154997
 20
     -103.200015
 30
        0.000000
 11
       -0.154997
 21
     -103.700015
 31
        0.000000
  0
LINE
  8
0
  6
CONTINUOUS
 10
       -1.904997
 20
     -103.700015
 30
        0.000000
 11
       -1.904997
 21
     -104.700015
 31
        0.000000
  0
ARC
  8
0
  6
CONTINUOUS
 10
       -1.404997
 20
     -103.700015
 30
        0.000000
 40
        0.500000
 50
       90.000000
 51
      180.000015
  0
LINE
  8
0
  6
CONTINUOUS
 10
       -1.404997
 20
     -103.200015
 30
        0.000000
 11
       -0.154997
 21
     -103.200015
 31
        0.000000
  0
LINE
  8
0
  6
CONTINUOUS
 10
        1.595003
 20
     -104.700015
 30
        0.000000
 11
        1.595003
 21
     -105.200015
 31
        0.000000
  0
LINE
  8
0
  6
CONTINUOUS
 10
        0.345003
 20
     -103.200015
 30
        0.000000
 11
        1.595003
 21
     -103.200015
 31
        0.000000
  0
LINE
  8
0
  6
CONTINUOUS
 10
        0.345003
 20
     -103.200015
 30
        0.000000
 11
        0.345003
 21
     -103.700015
 31
        0.000000
  0
ARC
  8
0
  6
CONTINUOUS
 10
        1.595003
 20
     -103.700015
 30
        0.000000
 40
        0.500000
 50
        0.000000
 51
       90.000000
  0
LINE
  8
0
  6
CONTINUOUS
 10
        2.095003
 20
     -103.700015
 30
        0.000000
 11
        2.095003
 21
     -104.700015
 31
        0.000000
  0
LINE
  8
0
  6
CONTINUOUS
 10
       10.765016
 20
     -109.200015
 30
        0.000000
 11
       10.765016
 21
     -100.200015
 31
        0.000000
  0
LINE
  8
0
  6
CONTINUOUS
 10
        4.665025
 20
     -101.200015
 30
        0.000000
 11
       10.765016
 21
     -101.200015
 31
        0.000000
  0
LINE
  8
0
  6
CONTINUOUS
 10
        4.664995
 20
     -109.200015
 30
        0.000000
 11
        4.664995
 21
     -100.200015
 31
        0.000000
  0
LINE
  8
0
  6
CONTINUOUS
 10
        7.465013
 20
     -103.700015
 30
        0.000000
 11
        7.965013
 21
     -103.700015
 31
        0.000000
  0
LINE
  8
0
  6
CONTINUOUS
 10
        4.665025
 20
     -105.200015
 30
        0.000000
 11
       10.765016
 21
     -105.200015
 31
        0.000000
  0
LINE
  8
0
  6
CONTINUOUS
 10
        4.665025
 20
     -106.200015
 30
        0.000000
 11
       10.765016
 21
     -106.200015
 31
        0.000000
  0
LINE
  8
0
  6
CONTINUOUS
 10
        5.715013
 20
     -104.700015
 30
        0.000000
 11
        9.715013
 21
     -104.700015
 31
        0.000000
  0
LINE
  8
0
  6
CONTINUOUS
 10
        6.215013
 20
     -104.700015
 30
        0.000000
 11
        6.215013
 21
     -105.200015
 31
        0.000000
  0
LINE
  8
0
  6
CONTINUOUS
 10
        7.465013
 20
     -103.200015
 30
        0.000000
 11
        7.465013
 21
     -103.700015
 31
        0.000000
  0
LINE
  8
0
  6
CONTINUOUS
 10
        5.715013
 20
     -103.700015
 30
        0.000000
 11
        5.715013
 21
     -104.700015
 31
        0.000000
  0
ARC
  8
0
  6
CONTINUOUS
 10
        6.215013
 20
     -103.700015
 30
        0.000000
 40
        0.500000
 50
       90.000000
 51
      180.000015
  0
LINE
  8
0
  6
CONTINUOUS
 10
        6.215013
 20
     -103.200015
 30
        0.000000
 11
        7.465013
 21
     -103.200015
 31
        0.000000
  0
LINE
  8
0
  6
CONTINUOUS
 10
        9.215013
 20
     -104.700015
 30
        0.000000
 11
        9.215013
 21
     -105.200015
 31
        0.000000
  0
LINE
  8
0
  6
CONTINUOUS
 10
        7.965013
 20
     -103.200015
 30
        0.000000
 11
        9.215013
 21
     -103.200015
 31
        0.000000
  0
LINE
  8
0
  6
CONTINUOUS
 10
        7.965013
 20
     -103.200015
 30
        0.000000
 11
        7.965013
 21
     -103.700015
 31
        0.000000
  0
ARC
  8
0
  6
CONTINUOUS
 10
        9.215013
 20
     -103.700015
 30
        0.000000
 40
        0.500000
 50
        0.000000
 51
       90.000000
  0
LINE
  8
0
  6
CONTINUOUS
 10
        9.715013
 20
     -103.700015
 30
        0.000000
 11
        9.715013
 21
     -104.700015
 31
        0.000000
  0
LINE
  8
0
  6
CONTINUOUS
 10
       18.385011
 20
     -109.200015
 30
        0.000000
 11
       18.385011
 21
     -100.200015
 31
        0.000000
  0
LINE
  8
0
  6
CONTINUOUS
 10
       12.285020
 20
     -101.200015
 30
        0.000000
 11
       18.385011
 21
     -101.200015
 31
        0.000000
  0
LINE
  8
0
  6
CONTINUOUS
 10
       12.284990
 20
     -109.200015
 30
        0.000000
 11
       12.284990
 21
     -100.200015
 31
        0.000000
  0
LINE
  8
0
  6
CONTINUOUS
 10
       15.085008
 20
     -103.700015
 30
        0.000000
 11
       15.585008
 21
     -103.700015
 31
        0.000000
  0
LINE
  8
0
  6
CONTINUOUS
 10
       12.285020
 20
     -105.200015
 30
        0.000000
 11
       18.385011
 21
     -105.200015
 31
        0.000000
  0
LINE
  8
0
  6
CONTINUOUS
 10
       12.285020
 20
     -106.200015
 30
        0.000000
 11
       18.385011
 21
     -106.200015
 31
        0.000000
  0
LINE
  8
0
  6
CONTINUOUS
 10
       13.335008
 20
     -104.700015
 30
        0.000000
 11
       17.335008
 21
     -104.700015
 31
        0.000000
  0
LINE
  8
0
  6
CONTINUOUS
 10
       13.835008
 20
     -104.700015
 30
        0.000000
 11
       13.835008
 21
     -105.200015
 31
        0.000000
  0
LINE
  8
0
  6
CONTINUOUS
 10
       15.085008
 20
     -103.200015
 30
        0.000000
 11
       15.085008
 21
     -103.700015
 31
        0.000000
  0
LINE
  8
0
  6
CONTINUOUS
 10
       13.335008
 20
     -103.700015
 30
        0.000000
 11
       13.335008
 21
     -104.700015
 31
        0.000000
  0
ARC
  8
0
  6
CONTINUOUS
 10
       13.835008
 20
     -103.700015
 30
        0.000000
 40
        0.500000
 50
       90.000000
 51
      180.000015
  0
LINE
  8
0
  6
CONTINUOUS
 10
       13.835008
 20
     -103.200015
 30
        0.000000
 11
       15.085008
 21
     -103.200015
 31
        0.000000
  0
LINE
  8
0
  6
CONTINUOUS
 10
       16.835008
 20
     -104.700015
 30
        0.000000
 11
       16.835008
 21
     -105.200015
 31
        0.000000
  0
LINE
  8
0
  6
CONTINUOUS
 10
       15.585008
 20
     -103.200015
 30
        0.000000
 11
       16.835008
 21
     -103.200015
 31
        0.000000
  0
LINE
  8
0
  6
CONTINUOUS
 10
       15.585008
 20
     -103.200015
 30
        0.000000
 11
       15.585008
 21
     -103.700015
 31
        0.000000
  0
ARC
  8
0
  6
CONTINUOUS
 10
       16.835008
 20
     -103.700015
 30
        0.000000
 40
        0.500000
 50
        0.000000
 51
       90.000000
  0
LINE
  8
0
  6
CONTINUOUS
 10
       17.335008
 20
     -103.700015
 30
        0.000000
 11
       17.335008
 21
     -104.700015
 31
        0.000000
  0
LINE
  8
0
  6
CONTINUOUS
 10
       18.385011
 20
     -100.200015
 30
        0.000000
 11
       19.904970
 21
     -100.200015
 31
        0.000000
  0
LINE
  8
0
  6
CONTINUOUS
 10
       19.904970
 20
     -109.200015
 30
        0.000000
 11
       19.904970
 21
     -100.200015
 31
        0.000000
  0
LINE
  8
0
  6
CONTINUOUS
 10
       22.194948
 20
     -115.200015
 30
        0.000000
 11
       22.194948
 21
     -100.200015
 31
        0.000000
  0
LINE
  8
0
  6
CONTINUOUS
 10
       23.850000
 20
     -120.200015
 30
        0.000000
 11
       23.850000
 21
     -100.200015
 31
        0.000000
  0
LINE
  8
0
  6
CONTINUOUS
 10
       22.194948
 20
     -100.200015
 30
        0.000000
 11
       23.850000
 21
     -100.200015
 31
        0.000000
  0
LINE
  8
0
  6
CONTINUOUS
 10
       19.904970
 20
     -101.200015
 30
        0.000000
 11
       22.194948
 21
     -101.200015
 31
        0.000000
  0
LINE
  8
0
  6
CONTINUOUS
 10
       19.904970
 20
     -109.200015
 30
        0.000000
 11
       22.194948
 21
     -109.200015
 31
        0.000000
  0
LINE
  8
0
  6
CENTER
 62
  1
 10
      -38.238873
 20
        0.000000
 30
        0.000000
 11
       41.519746
 21
        0.000000
 31
        0.000000
  0
LINE
  8
0
  6
CENTER
 62
  1
 10
        0.000000
 20
       50.224741
 30
        0.000000
 11
        0.000000
 21
      -64.073579
 31
        0.000000
  0
LINE
  8
0
  6
CENTER
 62
  1
 10
        0.000000
 20
      -78.881182
 30
        0.000000
 11
        0.000000
 21
     -166.043602
 31
        0.000000
  0
LINE
  8
0
  6
CENTER
 62
  1
 10
       69.485872
 20
        0.000000
 30
        0.000000
 11
      154.999212
 21
        0.000000
 31
        0.000000
  0
LINE
  8
0
  6
CONTINUOUS
 10
      -29.700000
 20
       24.000000
 30
        0.000000
 11
       29.700000
 21
       24.000000
 31
        0.000000
  0
LINE
  8
0
  6
CONTINUOUS
 10
      -30.000000
 20
       23.700000
 30
        0.000000
 11
      -30.000000
 21
       19.100000
 31
        0.000000
  0
LINE
  8
0
  6
CONTINUOUS
 10
       30.000000
 20
       23.700000
 30
        0.000000
 11
       30.000000
 21
       19.100000
 31
        0.000000
  0
ARC
  8
0
  6
CONTINUOUS
 10
       29.700000
 20
       23.700000
 30
        0.000000
 40
        0.300000
 50
        0.000000
 51
       90.000000
  0
LINE
  8
0
  6
CONTINUOUS
 10
       29.500000
 20
      -24.000000
 30
        0.000000
 11
       29.500000
 21
      -19.000000
 31
        0.000000
  0
ARC
  8
0
  6
CONTINUOUS
 10
       25.000000
 20
       38.000000
 30
        0.000000
 40
        7.000000
 50
        0.000000
 51
       90.000000
  0
LINE
  8
0
  6
CONTINUOUS
 10
       32.000000
 20
       38.000000
 30
        0.000000
 11
       32.000000
 21
        0.000000
 31
        0.000000
  0
ARC
  8
0
  6
CONTINUOUS
 10
       29.200000
 20
      -23.700000
 30
        0.000000
 40
        0.300000
 50
      270.000000
 51
      360.000000
  0
LINE
  8
0
  6
CONTINUOUS
 10
       29.500000
 20
      -19.000000
 30
        0.000000
 11
       32.000000
 21
      -19.000000
 31
        0.000000
  0
LINE
  8
0
  6
CONTINUOUS
 10
       32.000000
 20
      -38.000000
 30
        0.000000
 11
       32.000000
 21
        0.000000
 31
        0.000000
  0
ARC
  8
0
  6
CONTINUOUS
 10
       25.000000
 20
      -38.000000
 30
        0.000000
 40
        7.000000
 50
      270.000000
 51
      360.000000
  0
LINE
  8
0
  6
CONTINUOUS
 10
      -32.000000
 20
       38.000000
 30
        0.000000
 11
      -32.000000
 21
        0.000000
 31
        0.000000
  0
LINE
  8
0
  6
CONTINUOUS
 10
      -25.000000
 20
       45.000000
 30
        0.000000
 11
       25.000000
 21
       45.000000
 31
        0.000000
  0
LINE
  8
0
  6
CONTINUOUS
 10
      -29.500000
 20
      -24.000000
 30
        0.000000
 11
       29.200000
 21
      -24.000000
 31
        0.000000
  0
LINE
  8
0
  6
CONTINUOUS
 10
      -25.000000
 20
      -45.000000
 30
        0.000000
 11
       25.000000
 21
      -45.000000
 31
        0.000000
  0
LINE
  8
0
  6
CONTINUOUS
 10
      -32.000000
 20
      -38.000000
 30
        0.000000
 11
      -32.000000
 21
        0.000000
 31
        0.000000
  0
ARC
  8
0
  6
CONTINUOUS
 10
      -25.000000
 20
       38.000000
 30
        0.000000
 40
        7.000000
 50
       90.000000
 51
      180.000010
  0
ARC
  8
0
  6
CONTINUOUS
 10
      -29.700000
 20
       23.700000
 30
        0.000000
 40
        0.300000
 50
       90.000000
 51
      180.000010
  0
LINE
  8
0
  6
CONTINUOUS
 10
      -29.500000
 20
      -24.000000
 30
        0.000000
 11
      -29.500000
 21
      -19.100000
 31
        0.000000
  0
ARC
  8
0
  6
CONTINUOUS
 10
      -29.200000
 20
      -23.700000
 30
        0.000000
 40
        0.300000
 50
      180.000010
 51
      270.000000
  0
ARC
  8
0
  6
CONTINUOUS
 10
      -25.000000
 20
      -38.000000
 30
        0.000000
 40
        7.000000
 50
      180.000010
 51
      270.000000
  0
ARC
  8
0
  6
CONTINUOUS
 10
       10.800000
 20
       18.500000
 30
        0.000000
 40
        0.500000
 50
        0.000000
 51
       90.000000
  0
LINE
  8
0
  6
CONTINUOUS
 10
       11.300000
 20
       18.500000
 30
        0.000000
 11
       11.300000
 21
      -18.500000
 31
        0.000000
  0
ARC
  8
0
  6
CONTINUOUS
 10
       10.800000
 20
      -18.500000
 30
        0.000000
 40
        0.500000
 50
      270.000000
 51
      360.000000
  0
LINE
  8
0
  6
CONTINUOUS
 10
      -10.800000
 20
      -19.000000
 30
        0.000000
 11
       10.800000
 21
      -19.000000
 31
        0.000000
  0
ARC
  8
0
  6
CONTINUOUS
 10
      -10.800000
 20
      -18.500000
 30
        0.000000
 40
        0.500000
 50
      179.999990
 51
      270.000000
  0
LINE
  8
0
  6
CONTINUOUS
 10
      -10.800000
 20
       19.000000
 30
        0.000000
 11
       10.800000
 21
       19.000000
 31
        0.000000
  0
LINE
  8
0
  6
CONTINUOUS
 10
      -11.300000
 20
       18.500000
 30
        0.000000
 11
      -11.300000
 21
      -18.500000
 31
        0.000000
  0
ARC
  8
0
  6
CONTINUOUS
 10
      -10.800000
 20
       18.500000
 30
        0.000000
 40
        0.500000
 50
       90.000000
 51
      179.999990
  0
LINE
  8
0
  6
CONTINUOUS
 10
      -32.000000
 20
       19.100000
 30
        0.000000
 11
      -14.800000
 21
       19.100000
 31
        0.000000
  0
ARC
  8
0
  6
CONTINUOUS
 10
      -14.800000
 20
       18.600000
 30
        0.000000
 40
        0.500000
 50
        0.000000
 51
       90.000000
  0
LINE
  8
0
  6
CONTINUOUS
 10
      -14.300000
 20
       18.600000
 30
        0.000000
 11
      -14.300000
 21
      -18.600000
 31
        0.000000
  0
LINE
  8
0
  6
CONTINUOUS
 10
      -32.000000
 20
      -19.100000
 30
        0.000000
 11
      -14.800000
 21
      -19.100000
 31
        0.000000
  0
ARC
  8
0
  6
CONTINUOUS
 10
      -14.800000
 20
      -18.600000
 30
        0.000000
 40
        0.500000
 50
      270.000000
 51
      360.000000
  0
LINE
  8
0
  6
CONTINUOUS
 10
       32.000000
 20
      -19.100000
 30
        0.000000
 11
       14.800000
 21
      -19.100000
 31
        0.000000
  0
ARC
  8
0
  6
CONTINUOUS
 10
       14.800000
 20
      -18.600000
 30
        0.000000
 40
        0.500000
 50
      179.999990
 51
      270.000000
  0
LINE
  8
0
  6
CONTINUOUS
 10
       32.000000
 20
       19.100000
 30
        0.000000
 11
       14.800000
 21
       19.100000
 31
        0.000000
  0
LINE
  8
0
  6
CONTINUOUS
 10
       14.300000
 20
       18.600000
 30
        0.000000
 11
       14.300000
 21
      -18.600000
 31
        0.000000
  0
ARC
  8
0
  6
CONTINUOUS
 10
       14.800000
 20
       18.600000
 30
        0.000000
 40
        0.500000
 50
       90.000000
 51
      179.999990
  0
CIRCLE
  8
0
  6
CONTINUOUS
 10
        6.000000
 20
       10.650000
 30
        0.000000
 40
        1.000000
  0
LINE
  8
0
  6
CONTINUOUS
 10
       -3.750000
 20
      -47.000000
 30
        0.000000
 11
        3.750000
 21
      -47.000000
 31
        0.000000
  0
LINE
  8
0
  6
CONTINUOUS
 10
        3.750000
 20
      -47.000000
 30
        0.000000
 11
        3.750000
 21
      -45.000000
 31
        0.000000
  0
LINE
  8
0
  6
CONTINUOUS
 10
       -3.750000
 20
      -47.000000
 30
        0.000000
 11
       -3.750000
 21
      -45.000000
 31
        0.000000
  0
LINE
  8
0
  6
CONTINUOUS
 10
        7.500000
 20
      -45.000000
 30
        0.000000
 11
        7.500000
 21
      -47.000000
 31
        0.000000
  0
ARC
  8
0
  6
CONTINUOUS
 10
        5.500000
 20
      -47.000000
 30
        0.000000
 40
        2.000000
 50
      270.000000
 51
      360.000000
  0
LINE
  8
0
  6
CONTINUOUS
 10
       -7.500000
 20
      -45.000000
 30
        0.000000
 11
       -7.500000
 21
      -47.000000
 31
        0.000000
  0
LINE
  8
0
  6
CONTINUOUS
 10
       -5.500000
 20
      -49.000000
 30
        0.000000
 11
        5.500000
 21
      -49.000000
 31
        0.000000
  0
ARC
  8
0
  6
CONTINUOUS
 10
       -5.500000
 20
      -47.000000
 30
        0.000000
 40
        2.000000
 50
      179.999990
 51
      270.000000
  0
LINE
  8
0
  6
CONTINUOUS
 10
       12.499992
 20
     -156.800008
 30
        0.000000
 11
      -12.500008
 21
     -156.800008
 31
        0.000000
  0
LINE
  8
0
  6
CONTINUOUS
 10
       12.499992
 20
     -160.000008
 30
        0.000000
 11
       12.499992
 21
     -156.800008
 31
        0.000000
  0
LINE
  8
0
  6
CONTINUOUS
 10
      -12.500008
 20
     -160.000008
 30
        0.000000
 11
      -12.500008
 21
     -156.800008
 31
        0.000000
  0
LINE
  8
0
  6
CONTINUOUS
 10
        7.499992
 20
     -156.800008
 30
        0.000000
 11
        7.499992
 21
     -160.000008
 31
        0.000000
  0
LINE
  8
0
  6
CONTINUOUS
 10
       -7.500008
 20
     -156.800008
 30
        0.000000
 11
       -7.500008
 21
     -160.000008
 31
        0.000000
  0
LINE
  8
0
  6
CONTINUOUS
 10
      -29.700008
 20
      -86.291326
 30
        0.000000
 11
      -29.700008
 21
      -85.395972
 31
        0.000000
  0
LINE
  8
0
  6
CONTINUOUS
 10
      -29.700008
 20
      -85.395972
 30
        0.000000
 11
      -31.077411
 21
      -85.395972
 31
        0.000000
  0
ARC
  8
0
  6
CONTINUOUS
 10
      -30.311590
 20
      -89.890552
 30
        0.000000
 40
        1.000000
 50
       90.000000
 51
      176.999990
  0
LINE
  8
0
  6
CONTINUOUS
 10
      -32.000000
 20
     -103.000015
 30
        0.000000
 11
      -31.053917
 21
      -84.947672
 31
        0.000000
  0
LINE
  8
0
  6
CONTINUOUS
 10
      -31.500000
 20
     -103.500015
 30
        0.000000
 11
      -31.500000
 21
     -103.000015
 31
        0.000000
  0
ARC
  8
0
  6
CONTINUOUS
 10
      -30.055287
 20
      -85.000008
 30
        0.000000
 40
        1.000000
 50
       90.000000
 51
      176.999990
  0
LINE
  8
0
  6
CONTINUOUS
 10
       31.077411
 20
      -85.395972
 30
        0.000000
 11
       29.700008
 21
      -85.395972
 31
        0.000000
  0
ARC
  8
0
  6
CONTINUOUS
 10
       30.311590
 20
      -89.890552
 30
        0.000000
 40
        1.000000
 50
        3.000000
 51
       90.000000
  0
LINE
  8
0
  6
CONTINUOUS
 10
       32.000000
 20
     -103.000015
 30
        0.000000
 11
       31.053917
 21
      -84.947672
 31
        0.000000
  0
ARC
  8
0
  6
CONTINUOUS
 10
       30.055287
 20
      -85.000008
 30
        0.000000
 40
        1.000000
 50
        3.000000
 51
       90.000000
  0
LINE
  8
0
  6
CONTINUOUS
 10
       31.500000
 20
     -103.500015
 30
        0.000000
 11
       31.500000
 21
     -103.000015
 31
        0.000000
  0
LINE
  8
0
  6
CONTINUOUS
 10
       32.000000
 20
     -152.000008
 30
        0.000000
 11
       32.000000
 21
     -160.000008
 31
        0.000000
  0
LINE
  8
0
  6
CONTINUOUS
 10
       32.000000
 20
     -152.000008
 30
        0.000000
 11
       32.000000
 21
     -103.500015
 31
        0.000000
  0
LINE
  8
0
  6
CONTINUOUS
 10
       29.700008
 20
      -86.291326
 30
        0.000000
 11
       29.700008
 21
      -85.395972
 31
        0.000000
  0
LINE
  8
0
  6
CONTINUOUS
 10
       29.700008
 20
      -86.291326
 30
        0.000000
 11
      -29.700008
 21
      -86.291326
 31
        0.000000
  0
LINE
  8
0
  6
CONTINUOUS
 10
       30.311590
 20
      -88.890552
 30
        0.000000
 11
      -30.311590
 21
      -88.890552
 31
        0.000000
  0
LINE
  8
0
  6
CONTINUOUS
 10
       31.711757
 20
      -97.500008
 30
        0.000000
 11
      -31.711757
 21
      -97.500008
 31
        0.000000
  0
LINE
  8
0
  6
CONTINUOUS
 10
      -30.055287
 20
      -84.000008
 30
        0.000000
 11
       30.055287
 21
      -84.000008
 31
        0.000000
  0
LINE
  8
0
  6
CONTINUOUS
 10
      -32.000000
 20
     -160.000008
 30
        0.000000
 11
       32.000000
 21
     -160.000008
 31
        0.000000
  0
LINE
  8
0
  6
CONTINUOUS
 10
       24.000000
 20
     -103.000015
 30
        0.000000
 11
       24.000000
 21
      -97.500008
 31
        0.000000
  0
LINE
  8
0
  6
CONTINUOUS
 10
       24.000000
 20
     -120.200015
 30
        0.000000
 11
       24.000000
 21
     -103.000015
 31
        0.000000
  0
LINE
  8
0
  6
CONTINUOUS
 10
       24.000000
 20
     -103.000015
 30
        0.000000
 11
       32.000000
 21
     -103.000015
 31
        0.000000
  0
LINE
  8
0
  6
CONTINUOUS
 10
       24.000000
 20
     -103.500015
 30
        0.000000
 11
       32.000000
 21
     -103.500015
 31
        0.000000
  0
LINE
  8
0
  6
CONTINUOUS
 10
       24.000000
 20
      -97.000008
 30
        0.000000
 11
       24.000000
 21
      -90.000008
 31
        0.000000
  0
LINE
  8
0
  6
CONTINUOUS
 10
       24.000000
 20
      -90.000008
 30
        0.000000
 11
      -19.999982
 21
      -90.000008
 31
        0.000000
  0
LINE
  8
0
  6
CONTINUOUS
 10
       24.000000
 20
      -97.000008
 30
        0.000000
 11
      -19.999982
 21
      -97.000008
 31
        0.000000
  0
LINE
  8
0
  6
CONTINUOUS
 10
      -19.999982
 20
     -120.200015
 30
        0.000000
 11
       24.000000
 21
     -120.200015
 31
        0.000000
  0
LINE
  8
0
  6
CONTINUOUS
 10
      -19.999982
 20
     -103.000015
 30
        0.000000
 11
      -19.999982
 21
      -97.500008
 31
        0.000000
  0
LINE
  8
0
  6
CONTINUOUS
 10
      -19.999982
 20
     -120.200015
 30
        0.000000
 11
      -19.999982
 21
     -103.000015
 31
        0.000000
  0
LINE
  8
0
  6
CONTINUOUS
 10
      -32.000000
 20
     -103.000015
 30
        0.000000
 11
      -19.999982
 21
     -103.000015
 31
        0.000000
  0
LINE
  8
0
  6
CONTINUOUS
 10
      -32.000000
 20
     -103.500015
 30
        0.000000
 11
      -19.999982
 21
     -103.500015
 31
        0.000000
  0
LINE
  8
0
  6
CONTINUOUS
 10
      -19.999982
 20
      -97.000008
 30
        0.000000
 11
      -19.999982
 21
      -90.000008
 31
        0.000000
  0
LINE
  8
0
  6
CONTINUOUS
 10
      148.599992
 20
      -16.250015
 30
        0.000000
 11
      148.599992
 21
      -17.750015
 31
        0.000000
  0
LINE
  8
0
  6
CONTINUOUS
 10
      148.599992
 20
      -16.250015
 30
        0.000000
 11
      149.999992
 21
      -17.750015
 31
        0.000000
  0
LINE
  8
0
  6
CONTINUOUS
 10
      148.399992
 20
       15.750000
 30
        0.000000
 11
      147.999992
 21
       17.750000
 31
        0.000000
  0
LINE
  8
0
  6
CONTINUOUS
 10
      149.999992
 20
       15.750000
 30
        0.000000
 11
      148.399992
 21
       15.750000
 31
        0.000000
  0
LINE
  8
0
  6
CONTINUOUS
 10
      149.999992
 20
       45.000000
 30
        0.000000
 11
      149.999992
 21
       15.750000
 31
        0.000000
  0
LINE
  8
0
  6
CONTINUOUS
 10
      146.799992
 20
       17.750000
 30
        0.000000
 11
      146.799992
 21
      -17.750015
 31
        0.000000
  0
LINE
  8
0
  6
CONTINUOUS
 10
      149.999992
 20
       17.750000
 30
        0.000000
 11
      146.799992
 21
       17.750000
 31
        0.000000
  0
LINE
  8
0
  6
CONTINUOUS
 10
      149.999992
 20
      -17.750015
 30
        0.000000
 11
      146.799992
 21
      -17.750015
 31
        0.000000
  0
LINE
  8
0
  6
CONTINUOUS
 10
      146.999992
 20
      -49.000000
 30
        0.000000
 11
      149.999992
 21
      -49.000000
 31
        0.000000
  0
LINE
  8
0
  6
CONTINUOUS
 10
      149.999992
 20
      -45.000015
 30
        0.000000
 11
      149.999992
 21
      -49.000000
 31
        0.000000
  0
LINE
  8
0
  6
CONTINUOUS
 10
      146.999992
 20
      -45.000015
 30
        0.000000
 11
      146.999992
 21
      -49.000000
 31
        0.000000
  0
LINE
  8
0
  6
CONTINUOUS
 10
      149.999992
 20
      -17.750015
 30
        0.000000
 11
      149.999992
 21
      -45.000015
 31
        0.000000
  0
LINE
  8
0
  6
CONTINUOUS
 10
       92.999992
 20
       45.000000
 30
        0.000000
 11
       92.999992
 21
      -45.000015
 31
        0.000000
  0
LINE
  8
0
  6
CONTINUOUS
 10
      120.999992
 20
       14.499992
 30
        0.000000
 11
      119.499992
 21
       14.499992
 31
        0.000000
  0
LINE
  8
0
  6
CONTINUOUS
 10
      120.999992
 20
        8.499992
 30
        0.000000
 11
      119.499992
 21
        8.499992
 31
        0.000000
  0
LINE
  8
0
  6
CONTINUOUS
 10
      120.999992
 20
       -8.500008
 30
        0.000000
 11
      119.499992
 21
       -8.500008
 31
        0.000000
  0
LINE
  8
0
  6
CONTINUOUS
 10
      120.999992
 20
      -14.500008
 30
        0.000000
 11
      119.499992
 21
      -14.500008
 31
        0.000000
  0
LINE
  8
0
  6
CONTINUOUS
 10
      123.999992
 20
      -14.500008
 30
        0.000000
 11
      122.499992
 21
      -14.500008
 31
        0.000000
  0
LINE
  8
0
  6
CONTINUOUS
 10
      123.999992
 20
       -8.500008
 30
        0.000000
 11
      122.499992
 21
       -8.500008
 31
        0.000000
  0
LINE
  8
0
  6
CONTINUOUS
 10
      123.999992
 20
        8.499992
 30
        0.000000
 11
      122.499992
 21
        8.499992
 31
        0.000000
  0
LINE
  8
0
  6
CONTINUOUS
 10
      123.999992
 20
       14.499992
 30
        0.000000
 11
      122.499992
 21
       14.499992
 31
        0.000000
  0
LINE
  8
0
  6
CONTINUOUS
 10
      126.999992
 20
       14.499992
 30
        0.000000
 11
      125.499992
 21
       14.499992
 31
        0.000000
  0
LINE
  8
0
  6
CONTINUOUS
 10
      126.999992
 20
        8.499992
 30
        0.000000
 11
      125.499992
 21
        8.499992
 31
        0.000000
  0
LINE
  8
0
  6
CONTINUOUS
 10
      126.999992
 20
       -8.500008
 30
        0.000000
 11
      125.499992
 21
       -8.500008
 31
        0.000000
  0
LINE
  8
0
  6
CONTINUOUS
 10
      126.999992
 20
      -14.500008
 30
        0.000000
 11
      125.499992
 21
      -14.500008
 31
        0.000000
  0
LINE
  8
0
  6
CONTINUOUS
 10
      129.999992
 20
      -14.500008
 30
        0.000000
 11
      128.499992
 21
      -14.500008
 31
        0.000000
  0
LINE
  8
0
  6
CONTINUOUS
 10
      129.999992
 20
       -8.500008
 30
        0.000000
 11
      128.499992
 21
       -8.500008
 31
        0.000000
  0
LINE
  8
0
  6
CONTINUOUS
 10
      129.999992
 20
        8.499992
 30
        0.000000
 11
      128.499992
 21
        8.499992
 31
        0.000000
  0
LINE
  8
0
  6
CONTINUOUS
 10
      129.999992
 20
       14.499992
 30
        0.000000
 11
      128.499992
 21
       14.499992
 31
        0.000000
  0
LINE
  8
0
  6
CONTINUOUS
 10
      132.999992
 20
       14.499992
 30
        0.000000
 11
      131.499992
 21
       14.499992
 31
        0.000000
  0
LINE
  8
0
  6
CONTINUOUS
 10
      132.999992
 20
        8.499992
 30
        0.000000
 11
      131.499992
 21
        8.499992
 31
        0.000000
  0
LINE
  8
0
  6
CONTINUOUS
 10
      132.999992
 20
       -8.500008
 30
        0.000000
 11
      131.499992
 21
       -8.500008
 31
        0.000000
  0
LINE
  8
0
  6
CONTINUOUS
 10
      132.999992
 20
      -14.500008
 30
        0.000000
 11
      131.499992
 21
      -14.500008
 31
        0.000000
  0
LINE
  8
0
  6
CONTINUOUS
 10
      135.999992
 20
      -14.500008
 30
        0.000000
 11
      134.499992
 21
      -14.500008
 31
        0.000000
  0
LINE
  8
0
  6
CONTINUOUS
 10
      135.999992
 20
       -8.500008
 30
        0.000000
 11
      134.499992
 21
       -8.500008
 31
        0.000000
  0
LINE
  8
0
  6
CONTINUOUS
 10
      135.999992
 20
        8.499992
 30
        0.000000
 11
      134.499992
 21
        8.499992
 31
        0.000000
  0
LINE
  8
0
  6
CONTINUOUS
 10
      135.999992
 20
       14.499992
 30
        0.000000
 11
      134.499992
 21
       14.499992
 31
        0.000000
  0
LINE
  8
0
  6
CONTINUOUS
 10
      138.999992
 20
       14.499992
 30
        0.000000
 11
      137.499992
 21
       14.499992
 31
        0.000000
  0
LINE
  8
0
  6
CONTINUOUS
 10
      138.999992
 20
        8.499992
 30
        0.000000
 11
      137.499992
 21
        8.499992
 31
        0.000000
  0
LINE
  8
0
  6
CONTINUOUS
 10
      138.999992
 20
       -8.500008
 30
        0.000000
 11
      137.499992
 21
       -8.500008
 31
        0.000000
  0
LINE
  8
0
  6
CONTINUOUS
 10
      138.999992
 20
      -14.500008
 30
        0.000000
 11
      137.499992
 21
      -14.500008
 31
        0.000000
  0
LINE
  8
0
  6
CONTINUOUS
 10
      141.999992
 20
      -14.500008
 30
        0.000000
 11
      140.499992
 21
      -14.500008
 31
        0.000000
  0
LINE
  8
0
  6
CONTINUOUS
 10
      141.999992
 20
       -8.500008
 30
        0.000000
 11
      140.499992
 21
       -8.500008
 31
        0.000000
  0
LINE
  8
0
  6
CONTINUOUS
 10
      141.999992
 20
        8.499992
 30
        0.000000
 11
      140.499992
 21
        8.499992
 31
        0.000000
  0
LINE
  8
0
  6
CONTINUOUS
 10
      141.999992
 20
       14.499992
 30
        0.000000
 11
      140.499992
 21
       14.499992
 31
        0.000000
  0
LINE
  8
0
  6
CONTINUOUS
 10
       84.549124
 20
       19.299992
 30
        0.000000
 11
       77.784670
 21
       19.299992
 31
        0.000000
  0
ARC
  8
0
  6
CONTINUOUS
 10
      203.999992
 20
       -0.000008
 30
        0.000000
 40
      121.000000
 50
      167.730092
 51
      170.965744
  0
LINE
  8
0
  6
CONTINUOUS
 10
       84.501038
 20
       18.999992
 30
        0.000000
 11
       75.395957
 21
       18.999992
 31
        0.000000
  0
ARC
  8
0
  6
CONTINUOUS
 10
       11.499992
 20
       41.865850
 30
        0.000000
 40
       76.000000
 50
      347.730102
 51
      360.000000
  0
LINE
  8
0
  6
CONTINUOUS
 10
       92.999992
 20
       35.999992
 30
        0.000000
 11
       87.273284
 21
       35.999992
 31
        0.000000
  0
LINE
  8
0
  6
CONTINUOUS
 10
       87.499992
 20
       41.865850
 30
        0.000000
 11
       87.499992
 21
       44.711757
 31
        0.000000
  0
LINE
  8
0
  6
CONTINUOUS
 10
       92.999992
 20
       45.000000
 30
        0.000000
 11
       79.843521
 21
       44.310499
 31
        0.000000
  0
ARC
  8
0
  6
CONTINUOUS
 10
       79.895857
 20
       43.311869
 30
        0.000000
 40
        1.000000
 50
       92.999994
 51
      179.904611
  0
ARC
  8
0
  6
CONTINUOUS
 10
       13.895949
 20
       43.421738
 30
        0.000000
 40
       65.000000
 50
      347.133750
 51
      359.904621
  0
ARC
  8
0
  6
CONTINUOUS
 10
       77.784670
 20
       21.299992
 30
        0.000000
 40
        2.000000
 50
      170.421030
 51
      270.000000
  0
LINE
  8
0
  6
CONTINUOUS
 10
       76.499992
 20
       -6.000008
 30
        0.000000
 11
       75.499992
 21
       -6.000008
 31
        0.000000
  0
LINE
  8
0
  6
CONTINUOUS
 10
       76.499992
 20
        5.999992
 30
        0.000000
 11
       76.499992
 21
       -6.000008
 31
        0.000000
  0
LINE
  8
0
  6
CONTINUOUS
 10
       75.499992
 20
        5.999992
 30
        0.000000
 11
       75.499992
 21
       -6.000008
 31
        0.000000
  0
LINE
  8
0
  6
CONTINUOUS
 10
       76.499992
 20
        5.999992
 30
        0.000000
 11
       75.499992
 21
        5.999992
 31
        0.000000
  0
LINE
  8
0
  6
CONTINUOUS
 10
       84.501038
 20
      -19.000008
 30
        0.000000
 11
       75.395957
 21
      -19.000008
 31
        0.000000
  0
ARC
  8
0
  6
CONTINUOUS
 10
      203.999992
 20
       -0.000008
 30
        0.000000
 40
      121.000000
 50
      189.034256
 51
      192.269908
  0
ARC
  8
0
  6
CONTINUOUS
 10
      203.999992
 20
       -0.000008
 30
        0.000000
 40
      124.400000
 50
      184.379756
 51
      188.785358
  0
ARC
  8
0
  6
CONTINUOUS
 10
      203.999992
 20
       -0.000008
 30
        0.000000
 40
      124.400000
 50
      175.620244
 51
      184.379756
  0
LINE
  8
0
  6
CONTINUOUS
 10
       84.549124
 20
      -19.300008
 30
        0.000000
 11
       77.784670
 21
      -19.300008
 31
        0.000000
  0
ARC
  8
0
  6
CONTINUOUS
 10
       77.784670
 20
      -21.300008
 30
        0.000000
 40
        2.000000
 50
       90.000000
 51
      189.578970
  0
ARC
  8
0
  6
CONTINUOUS
 10
      203.999992
 20
        0.000046
 30
        0.000000
 40
      130.000000
 50
      167.133859
 51
      192.866260
  0
ARC
  8
0
  6
CONTINUOUS
 10
       79.895857
 20
      -43.311884
 30
        0.000000
 40
        1.000000
 50
      180.095389
 51
      267.000006
  0
ARC
  8
0
  6
CONTINUOUS
 10
       13.895949
 20
      -43.421753
 30
        0.000000
 40
       65.000000
 50
        0.095379
 51
       12.866250
  0
LINE
  8
0
  6
CONTINUOUS
 10
       92.999992
 20
      -45.000015
 30
        0.000000
 11
       79.843521
 21
      -44.310514
 31
        0.000000
  0
LINE
  8
0
  6
CONTINUOUS
 10
       87.499992
 20
      -41.865865
 30
        0.000000
 11
       87.499992
 21
      -44.711772
 31
        0.000000
  0
ARC
  8
0
  6
CONTINUOUS
 10
       11.499992
 20
      -41.865865
 30
        0.000000
 40
       76.000000
 50
        0.000000
 51
       12.269898
  0
LINE
  8
0
  6
CONTINUOUS
 10
       80.999992
 20
       -9.500008
 30
        0.000000
 11
       79.963264
 21
       -9.500008
 31
        0.000000
  0
LINE
  8
0
  6
CONTINUOUS
 10
       80.999992
 20
        9.499992
 30
        0.000000
 11
       79.963264
 21
        9.499992
 31
        0.000000
  0
LINE
  8
0
  6
CONTINUOUS
 10
       80.999992
 20
        9.499992
 30
        0.000000
 11
       80.999992
 21
       -9.500008
 31
        0.000000
  0
ARC
  8
0
  6
CONTINUOUS
 10
      203.999992
 20
       -0.000008
 30
        0.000000
 40
      124.400000
 50
      171.168035
 51
      175.620244
  0
LINE
  8
0
  6
CONTINUOUS
 10
       93.499992
 20
       44.500000
 30
        0.000000
 11
       92.999992
 21
       44.500000
 31
        0.000000
  0
LINE
  8
0
  6
CONTINUOUS
 10
       93.499992
 20
      -44.500015
 30
        0.000000
 11
       92.999992
 21
      -44.500015
 31
        0.000000
  0
LINE
  8
0
  6
CONTINUOUS
 10
       95.999992
 20
      -22.900008
 30
        0.000000
 11
       95.999992
 21
      -17.100008
 31
        0.000000
  0
LINE
  8
0
  6
CONTINUOUS
 10
       97.999992
 20
      -22.900008
 30
        0.000000
 11
       97.999992
 21
      -17.100008
 31
        0.000000
  0
LINE
  8
0
  6
CONTINUOUS
 10
       97.999992
 20
      -17.100008
 30
        0.000000
 11
       95.999992
 21
      -17.100008
 31
        0.000000
  0
LINE
  8
0
  6
CONTINUOUS
 10
       97.999992
 20
      -22.900008
 30
        0.000000
 11
       95.999992
 21
      -22.900008
 31
        0.000000
  0
LINE
  8
0
  6
CONTINUOUS
 10
       97.999992
 20
       17.099992
 30
        0.000000
 11
       95.999992
 21
       17.099992
 31
        0.000000
  0
LINE
  8
0
  6
CONTINUOUS
 10
       97.999992
 20
       22.899992
 30
        0.000000
 11
       97.999992
 21
       17.099992
 31
        0.000000
  0
LINE
  8
0
  6
CONTINUOUS
 10
       95.999992
 20
       22.899992
 30
        0.000000
 11
       95.999992
 21
       17.099992
 31
        0.000000
  0
LINE
  8
0
  6
CONTINUOUS
 10
       97.999992
 20
       22.899992
 30
        0.000000
 11
       95.999992
 21
       22.899992
 31
        0.000000
  0
LINE
  8
0
  6
CONTINUOUS
 10
      117.499992
 20
      -30.000008
 30
        0.000000
 11
       98.999992
 21
      -30.000008
 31
        0.000000
  0
LINE
  8
0
  6
CONTINUOUS
 10
      117.499992
 20
       29.999992
 30
        0.000000
 11
      117.499992
 21
      -30.000008
 31
        0.000000
  0
LINE
  8
0
  6
CONTINUOUS
 10
       98.999992
 20
       29.999992
 30
        0.000000
 11
       98.999992
 21
      -30.000008
 31
        0.000000
  0
LINE
  8
0
  6
CONTINUOUS
 10
      117.499992
 20
       29.999992
 30
        0.000000
 11
       98.999992
 21
       29.999992
 31
        0.000000
  0
LINE
  8
0
  6
CONTINUOUS
 10
      141.999992
 20
       35.999992
 30
        0.000000
 11
       93.499992
 21
       35.999992
 31
        0.000000
  0
LINE
  8
0
  6
CONTINUOUS
 10
       93.499992
 20
       45.000000
 30
        0.000000
 11
       93.499992
 21
      -45.000015
 31
        0.000000
  0
LINE
  8
0
 10
      -22.194971
 20
       45.000000
 30
        0.000000
 11
      -22.194971
 21
       26.500024
 31
        0.000000
  0
LINE
  8
0
 10
      -16.094995
 20
       45.000000
 30
        0.000000
 11
      -16.094995
 21
       35.800073
 31
        0.000000
  0
LINE
  8
0
 10
      -14.574976
 20
       45.000000
 30
        0.000000
 11
      -14.574976
 21
       35.800073
 31
        0.000000
  0
LINE
  8
0
 10
       -8.475000
 20
       45.000000
 30
        0.000000
 11
       -8.475000
 21
       35.800073
 31
        0.000000
  0
LINE
  8
0
 10
       -6.954980
 20
       45.000000
 30
        0.000000
 11
       -6.954980
 21
       35.800073
 31
        0.000000
  0
LINE
  8
0
 10
       -0.855005
 20
       45.000000
 30
        0.000000
 11
       -0.855005
 21
       35.800073
 31
        0.000000
  0
LINE
  8
0
 10
        0.665015
 20
       45.000000
 30
        0.000000
 11
        0.665015
 21
       35.800073
 31
        0.000000
  0
LINE
  8
0
 10
        6.764990
 20
       45.000000
 30
        0.000000
 11
        6.764990
 21
       35.800073
 31
        0.000000
  0
LINE
  8
0
 10
        8.285010
 20
       45.000000
 30
        0.000000
 11
        8.285010
 21
       35.800073
 31
        0.000000
  0
LINE
  8
0
 10
       14.384985
 20
       45.000000
 30
        0.000000
 11
       14.384985
 21
       35.800073
 31
        0.000000
  0
LINE
  8
0
 10
      -12.284998
 20
       35.800073
 30
        0.000000
 11
      -12.284998
 21
       26.500024
 31
        0.000000
  0
LINE
  8
0
 10
       -4.665002
 20
       35.800073
 30
        0.000000
 11
       -4.665002
 21
       26.500024
 31
        0.000000
  0
LINE
  8
0
 10
        2.954993
 20
       35.800073
 30
        0.000000
 11
        2.954993
 21
       26.500024
 31
        0.000000
  0
LINE
  8
0
 10
       10.574988
 20
       35.800073
 30
        0.000000
 11
       10.574988
 21
       26.500024
 31
        0.000000
  0
LINE
  8
0
 10
       18.194983
 20
       35.800073
 30
        0.000000
 11
       18.194983
 21
       26.500024
 31
        0.000000
  0
LINE
  8
0
 10
      -23.850000
 20
       45.000000
 30
        0.000000
 11
      -23.850000
 21
       25.500024
 31
        0.000000
  0
LINE
  8
0
 10
       18.195013
 20
       26.500024
 30
        0.000000
 11
      -22.194971
 21
       26.500024
 31
        0.000000
  0
LINE
  8
0
 10
       19.849982
 20
       25.500024
 30
        0.000000
 11
      -23.850000
 21
       25.500024
 31
        0.000000
  0
LINE
  8
0
 10
       18.195013
 20
       45.000000
 30
        0.000000
 11
       18.195013
 21
       26.500024
 31
        0.000000
  0
LINE
  8
0
 10
       18.195013
 20
       35.800073
 30
        0.000000
 11
      -22.194971
 21
       35.800073
 31
        0.000000
  0
LINE
  8
0
 10
       19.849982
 20
       45.000000
 30
        0.000000
 11
       19.849982
 21
       25.500024
 31
        0.000000
  0
ARC
  8
0
 10
      -21.494958
 20
       37.600000
 30
        0.000000
 40
        0.500000
 50
      180.000015
 51
      270.000000
  0
ARC
  8
0
 10
      -21.494958
 20
       41.600000
 30
        0.000000
 40
        0.500000
 50
       90.000000
 51
      180.000015
  0
LINE
  8
0
 10
      -21.994958
 20
       41.600000
 30
        0.000000
 11
      -21.994958
 21
       37.600000
 31
        0.000000
  0
ARC
  8
0
 10
      -16.795007
 20
       37.600000
 30
        0.000000
 40
        0.500000
 50
      270.000000
 51
      360.000000
  0
ARC
  8
0
 10
      -16.795007
 20
       41.600000
 30
        0.000000
 40
        0.500000
 50
        0.000000
 51
       90.000000
  0
CIRCLE
  8
0
 10
      -19.144983
 20
       39.600000
 30
        0.000000
 40
        2.000000
  0
LINE
  8
0
 10
      -16.295007
 20
       41.600000
 30
        0.000000
 11
      -16.295007
 21
       37.600000
 31
        0.000000
  0
LINE
  8
0
 10
      -16.094995
 20
       43.100000
 30
        0.000000
 11
      -22.194971
 21
       43.100000
 31
        0.000000
  0
LINE
  8
0
 10
      -16.795007
 20
       42.100000
 30
        0.000000
 11
      -21.494958
 21
       42.100000
 31
        0.000000
  0
LINE
  8
0
 10
      -16.795007
 20
       37.100000
 30
        0.000000
 11
      -21.494958
 21
       37.100000
 31
        0.000000
  0
LINE
  8
0
 10
      -18.437952
 20
       40.307153
 30
        0.000000
 11
      -19.852136
 21
       38.892908
 31
        0.000000
  0
LINE
  8
0
 10
      -20.559229
 20
       41.014185
 30
        0.000000
 11
      -17.730798
 21
       38.185754
 31
        0.000000
  0
LINE
  8
0
 10
      -16.749170
 20
       31.714197
 30
        0.000000
 11
      -13.920740
 21
       28.885767
 31
        0.000000
  0
LINE
  8
0
 10
      -14.627893
 20
       31.007104
 30
        0.000000
 11
      -16.042139
 21
       29.592920
 31
        0.000000
  0
LINE
  8
0
 10
      -12.985010
 20
       27.800012
 30
        0.000000
 11
      -17.684961
 21
       27.800012
 31
        0.000000
  0
CIRCLE
  8
0
 10
      -15.334985
 20
       30.300012
 30
        0.000000
 40
        2.000000
  0
LINE
  8
0
 10
      -18.184961
 20
       32.300012
 30
        0.000000
 11
      -18.184961
 21
       28.300012
 31
        0.000000
  0
LINE
  8
0
 10
      -12.485010
 20
       32.300012
 30
        0.000000
 11
      -12.485010
 21
       28.300012
 31
        0.000000
  0
LINE
  8
0
 10
      -12.284998
 20
       33.800012
 30
        0.000000
 11
      -18.384973
 21
       33.800012
 31
        0.000000
  0
LINE
  8
0
 10
      -12.985010
 20
       32.800012
 30
        0.000000
 11
      -17.684961
 21
       32.800012
 31
        0.000000
  0
ARC
  8
0
 10
      -12.985010
 20
       32.300012
 30
        0.000000
 40
        0.500000
 50
        0.000000
 51
       90.000000
  0
ARC
  8
0
 10
      -17.684961
 20
       32.300012
 30
        0.000000
 40
        0.500000
 50
       90.000000
 51
      180.000015
  0
ARC
  8
0
 10
      -12.985010
 20
       28.300012
 30
        0.000000
 40
        0.500000
 50
      270.000000
 51
      360.000000
  0
ARC
  8
0
 10
      -17.684961
 20
       28.300012
 30
        0.000000
 40
        0.500000
 50
      180.000015
 51
      270.000000
  0
LINE
  8
0
 10
      -18.384973
 20
       35.800073
 30
        0.000000
 11
      -18.384973
 21
       26.500024
 31
        0.000000
  0
ARC
  8
0
 10
      -13.874963
 20
       37.600000
 30
        0.000000
 40
        0.500000
 50
      180.000015
 51
      270.000000
  0
ARC
  8
0
 10
      -13.874963
 20
       41.600000
 30
        0.000000
 40
        0.500000
 50
       90.000000
 51
      180.000015
  0
LINE
  8
0
 10
      -14.374963
 20
       41.600000
 30
        0.000000
 11
      -14.374963
 21
       37.600000
 31
        0.000000
  0
ARC
  8
0
 10
       -9.175012
 20
       37.600000
 30
        0.000000
 40
        0.500000
 50
      270.000000
 51
      360.000000
  0
ARC
  8
0
 10
       -9.175012
 20
       41.600000
 30
        0.000000
 40
        0.500000
 50
        0.000000
 51
       90.000000
  0
CIRCLE
  8
0
 10
      -11.524988
 20
       39.600000
 30
        0.000000
 40
        2.000000
  0
LINE
  8
0
 10
       -8.675012
 20
       41.600000
 30
        0.000000
 11
       -8.675012
 21
       37.600000
 31
        0.000000
  0
LINE
  8
0
 10
       -8.475000
 20
       43.100000
 30
        0.000000
 11
      -14.574976
 21
       43.100000
 31
        0.000000
  0
LINE
  8
0
 10
       -9.175012
 20
       42.100000
 30
        0.000000
 11
      -13.874963
 21
       42.100000
 31
        0.000000
  0
LINE
  8
0
 10
       -9.175012
 20
       37.100000
 30
        0.000000
 11
      -13.874963
 21
       37.100000
 31
        0.000000
  0
LINE
  8
0
 10
      -10.817957
 20
       40.307153
 30
        0.000000
 11
      -12.232141
 21
       38.892908
 31
        0.000000
  0
LINE
  8
0
 10
      -12.939233
 20
       41.014185
 30
        0.000000
 11
      -10.110803
 21
       38.185754
 31
        0.000000
  0
LINE
  8
0
 10
       -9.129175
 20
       31.714197
 30
        0.000000
 11
       -6.300745
 21
       28.885767
 31
        0.000000
  0
LINE
  8
0
 10
       -7.007898
 20
       31.007104
 30
        0.000000
 11
       -8.422144
 21
       29.592920
 31
        0.000000
  0
LINE
  8
0
 10
       -5.365015
 20
       27.800012
 30
        0.000000
 11
      -10.064966
 21
       27.800012
 31
        0.000000
  0
CIRCLE
  8
0
 10
       -7.714990
 20
       30.300012
 30
        0.000000
 40
        2.000000
  0
LINE
  8
0
 10
      -10.564966
 20
       32.300012
 30
        0.000000
 11
      -10.564966
 21
       28.300012
 31
        0.000000
  0
LINE
  8
0
 10
       -4.865015
 20
       32.300012
 30
        0.000000
 11
       -4.865015
 21
       28.300012
 31
        0.000000
  0
LINE
  8
0
 10
       -4.665002
 20
       33.800012
 30
        0.000000
 11
      -10.764978
 21
       33.800012
 31
        0.000000
  0
LINE
  8
0
 10
       -5.365015
 20
       32.800012
 30
        0.000000
 11
      -10.064966
 21
       32.800012
 31
        0.000000
  0
ARC
  8
0
 10
       -5.365015
 20
       32.300012
 30
        0.000000
 40
        0.500000
 50
        0.000000
 51
       90.000000
  0
ARC
  8
0
 10
      -10.064966
 20
       32.300012
 30
        0.000000
 40
        0.500000
 50
       90.000000
 51
      180.000015
  0
ARC
  8
0
 10
       -5.365015
 20
       28.300012
 30
        0.000000
 40
        0.500000
 50
      270.000000
 51
      360.000000
  0
ARC
  8
0
 10
      -10.064966
 20
       28.300012
 30
        0.000000
 40
        0.500000
 50
      180.000015
 51
      270.000000
  0
LINE
  8
0
 10
      -10.764978
 20
       35.800073
 30
        0.000000
 11
      -10.764978
 21
       26.500024
 31
        0.000000
  0
ARC
  8
0
 10
       -6.254968
 20
       37.600000
 30
        0.000000
 40
        0.500000
 50
      180.000015
 51
      270.000000
  0
ARC
  8
0
 10
       -6.254968
 20
       41.600000
 30
        0.000000
 40
        0.500000
 50
       90.000000
 51
      180.000015
  0
LINE
  8
0
 10
       -6.754968
 20
       41.600000
 30
        0.000000
 11
       -6.754968
 21
       37.600000
 31
        0.000000
  0
ARC
  8
0
 10
       -1.555017
 20
       37.600000
 30
        0.000000
 40
        0.500000
 50
      270.000000
 51
      360.000000
  0
ARC
  8
0
 10
       -1.555017
 20
       41.600000
 30
        0.000000
 40
        0.500000
 50
        0.000000
 51
       90.000000
  0
CIRCLE
  8
0
 10
       -3.904993
 20
       39.600000
 30
        0.000000
 40
        2.000000
  0
LINE
  8
0
 10
       -1.055017
 20
       41.600000
 30
        0.000000
 11
       -1.055017
 21
       37.600000
 31
        0.000000
  0
LINE
  8
0
 10
       -0.855005
 20
       43.100000
 30
        0.000000
 11
       -6.954980
 21
       43.100000
 31
        0.000000
  0
LINE
  8
0
 10
       -1.555017
 20
       42.100000
 30
        0.000000
 11
       -6.254968
 21
       42.100000
 31
        0.000000
  0
LINE
  8
0
 10
       -1.555017
 20
       37.100000
 30
        0.000000
 11
       -6.254968
 21
       37.100000
 31
        0.000000
  0
LINE
  8
0
 10
       -3.197961
 20
       40.307153
 30
        0.000000
 11
       -4.612146
 21
       38.892908
 31
        0.000000
  0
LINE
  8
0
 10
       -5.319238
 20
       41.014185
 30
        0.000000
 11
       -2.490808
 21
       38.185754
 31
        0.000000
  0
LINE
  8
0
 10
       -1.509180
 20
       31.714197
 30
        0.000000
 11
        1.319250
 21
       28.885767
 31
        0.000000
  0
LINE
  8
0
 10
        0.612097
 20
       31.007104
 30
        0.000000
 11
       -0.802148
 21
       29.592920
 31
        0.000000
  0
LINE
  8
0
 10
        2.254980
 20
       27.800012
 30
        0.000000
 11
       -2.444971
 21
       27.800012
 31
        0.000000
  0
CIRCLE
  8
0
 10
       -0.094995
 20
       30.300012
 30
        0.000000
 40
        2.000000
  0
LINE
  8
0
 10
       -2.944971
 20
       32.300012
 30
        0.000000
 11
       -2.944971
 21
       28.300012
 31
        0.000000
  0
LINE
  8
0
 10
        2.754980
 20
       32.300012
 30
        0.000000
 11
        2.754980
 21
       28.300012
 31
        0.000000
  0
LINE
  8
0
 10
        2.954993
 20
       33.800012
 30
        0.000000
 11
       -3.144983
 21
       33.800012
 31
        0.000000
  0
LINE
  8
0
 10
        2.254980
 20
       32.800012
 30
        0.000000
 11
       -2.444971
 21
       32.800012
 31
        0.000000
  0
ARC
  8
0
 10
        2.254980
 20
       32.300012
 30
        0.000000
 40
        0.500000
 50
        0.000000
 51
       90.000000
  0
ARC
  8
0
 10
       -2.444971
 20
       32.300012
 30
        0.000000
 40
        0.500000
 50
       90.000000
 51
      180.000015
  0
ARC
  8
0
 10
        2.254980
 20
       28.300012
 30
        0.000000
 40
        0.500000
 50
      270.000000
 51
      360.000000
  0
ARC
  8
0
 10
       -2.444971
 20
       28.300012
 30
        0.000000
 40
        0.500000
 50
      180.000015
 51
      270.000000
  0
LINE
  8
0
 10
       -3.144983
 20
       35.800073
 30
        0.000000
 11
       -3.144983
 21
       26.500024
 31
        0.000000
  0
ARC
  8
0
 10
        1.365027
 20
       37.600000
 30
        0.000000
 40
        0.500000
 50
      180.000015
 51
      270.000000
  0
ARC
  8
0
 10
        1.365027
 20
       41.600000
 30
        0.000000
 40
        0.500000
 50
       90.000000
 51
      180.000015
  0
LINE
  8
0
 10
        0.865027
 20
       41.600000
 30
        0.000000
 11
        0.865027
 21
       37.600000
 31
        0.000000
  0
ARC
  8
0
 10
        6.064978
 20
       37.600000
 30
        0.000000
 40
        0.500000
 50
      270.000000
 51
      360.000000
  0
ARC
  8
0
 10
        6.064978
 20
       41.600000
 30
        0.000000
 40
        0.500000
 50
        0.000000
 51
       90.000000
  0
CIRCLE
  8
0
 10
        3.715002
 20
       39.600000
 30
        0.000000
 40
        2.000000
  0
LINE
  8
0
 10
        6.564978
 20
       41.600000
 30
        0.000000
 11
        6.564978
 21
       37.600000
 31
        0.000000
  0
LINE
  8
0
 10
        6.764990
 20
       43.100000
 30
        0.000000
 11
        0.665015
 21
       43.100000
 31
        0.000000
  0
LINE
  8
0
 10
        6.064978
 20
       42.100000
 30
        0.000000
 11
        1.365027
 21
       42.100000
 31
        0.000000
  0
LINE
  8
0
 10
        6.064978
 20
       37.100000
 30
        0.000000
 11
        1.365027
 21
       37.100000
 31
        0.000000
  0
LINE
  8
0
 10
        4.422034
 20
       40.307153
 30
        0.000000
 11
        3.007849
 21
       38.892908
 31
        0.000000
  0
LINE
  8
0
 10
        2.300757
 20
       41.014185
 30
        0.000000
 11
        5.129187
 21
       38.185754
 31
        0.000000
  0
LINE
  8
0
 10
        6.110815
 20
       31.714197
 30
        0.000000
 11
        8.939246
 21
       28.885767
 31
        0.000000
  0
LINE
  8
0
 10
        8.232092
 20
       31.007104
 30
        0.000000
 11
        6.817847
 21
       29.592920
 31
        0.000000
  0
LINE
  8
0
 10
        9.874976
 20
       27.800012
 30
        0.000000
 11
        5.175024
 21
       27.800012
 31
        0.000000
  0
CIRCLE
  8
0
 10
        7.525000
 20
       30.300012
 30
        0.000000
 40
        2.000000
  0
LINE
  8
0
 10
        4.675024
 20
       32.300012
 30
        0.000000
 11
        4.675024
 21
       28.300012
 31
        0.000000
  0
LINE
  8
0
 10
       10.374976
 20
       32.300012
 30
        0.000000
 11
       10.374976
 21
       28.300012
 31
        0.000000
  0
LINE
  8
0
 10
       10.574988
 20
       33.800012
 30
        0.000000
 11
        4.475012
 21
       33.800012
 31
        0.000000
  0
LINE
  8
0
 10
        9.874976
 20
       32.800012
 30
        0.000000
 11
        5.175024
 21
       32.800012
 31
        0.000000
  0
ARC
  8
0
 10
        9.874976
 20
       32.300012
 30
        0.000000
 40
        0.500000
 50
        0.000000
 51
       90.000000
  0
ARC
  8
0
 10
        5.175024
 20
       32.300012
 30
        0.000000
 40
        0.500000
 50
       90.000000
 51
      180.000015
  0
ARC
  8
0
 10
        9.874976
 20
       28.300012
 30
        0.000000
 40
        0.500000
 50
      270.000000
 51
      360.000000
  0
ARC
  8
0
 10
        5.175024
 20
       28.300012
 30
        0.000000
 40
        0.500000
 50
      180.000015
 51
      270.000000
  0
LINE
  8
0
 10
        4.475012
 20
       35.800073
 30
        0.000000
 11
        4.475012
 21
       26.500024
 31
        0.000000
  0
ARC
  8
0
 10
        8.985022
 20
       37.600000
 30
        0.000000
 40
        0.500000
 50
      180.000015
 51
      270.000000
  0
ARC
  8
0
 10
        8.985022
 20
       41.600000
 30
        0.000000
 40
        0.500000
 50
       90.000000
 51
      180.000015
  0
LINE
  8
0
 10
        8.485022
 20
       41.600000
 30
        0.000000
 11
        8.485022
 21
       37.600000
 31
        0.000000
  0
ARC
  8
0
 10
       13.684973
 20
       37.600000
 30
        0.000000
 40
        0.500000
 50
      270.000000
 51
      360.000000
  0
ARC
  8
0
 10
       13.684973
 20
       41.600000
 30
        0.000000
 40
        0.500000
 50
        0.000000
 51
       90.000000
  0
CIRCLE
  8
0
 10
       11.334998
 20
       39.600000
 30
        0.000000
 40
        2.000000
  0
LINE
  8
0
 10
       14.184973
 20
       41.600000
 30
        0.000000
 11
       14.184973
 21
       37.600000
 31
        0.000000
  0
LINE
  8
0
 10
       14.384985
 20
       43.100000
 30
        0.000000
 11
        8.285010
 21
       43.100000
 31
        0.000000
  0
LINE
  8
0
 10
       13.684973
 20
       42.100000
 30
        0.000000
 11
        8.985022
 21
       42.100000
 31
        0.000000
  0
LINE
  8
0
 10
       13.684973
 20
       37.100000
 30
        0.000000
 11
        8.985022
 21
       37.100000
 31
        0.000000
  0
LINE
  8
0
 10
       12.042029
 20
       40.307153
 30
        0.000000
 11
       10.627844
 21
       38.892908
 31
        0.000000
  0
LINE
  8
0
 10
        9.920752
 20
       41.014185
 30
        0.000000
 11
       12.749182
 21
       38.185754
 31
        0.000000
  0
LINE
  8
0
 10
       13.730811
 20
       31.714197
 30
        0.000000
 11
       16.559241
 21
       28.885767
 31
        0.000000
  0
LINE
  8
0
 10
       15.852087
 20
       31.007104
 30
        0.000000
 11
       14.437842
 21
       29.592920
 31
        0.000000
  0
LINE
  8
0
 10
       17.494971
 20
       27.800012
 30
        0.000000
 11
       12.795020
 21
       27.800012
 31
        0.000000
  0
CIRCLE
  8
0
 10
       15.144995
 20
       30.300012
 30
        0.000000
 40
        2.000000
  0
LINE
  8
0
 10
       12.295020
 20
       32.300012
 30
        0.000000
 11
       12.295020
 21
       28.300012
 31
        0.000000
  0
LINE
  8
0
 10
       17.994971
 20
       32.300012
 30
        0.000000
 11
       17.994971
 21
       28.300012
 31
        0.000000
  0
LINE
  8
0
 10
       18.194983
 20
       33.800012
 30
        0.000000
 11
       12.095007
 21
       33.800012
 31
        0.000000
  0
LINE
  8
0
 10
       17.494971
 20
       32.800012
 30
        0.000000
 11
       12.795020
 21
       32.800012
 31
        0.000000
  0
ARC
  8
0
 10
       17.494971
 20
       32.300012
 30
        0.000000
 40
        0.500000
 50
        0.000000
 51
       90.000000
  0
ARC
  8
0
 10
       12.795020
 20
       32.300012
 30
        0.000000
 40
        0.500000
 50
       90.000000
 51
      180.000015
  0
ARC
  8
0
 10
       17.494971
 20
       28.300012
 30
        0.000000
 40
        0.500000
 50
      270.000000
 51
      360.000000
  0
ARC
  8
0
 10
       12.795020
 20
       28.300012
 30
        0.000000
 40
        0.500000
 50
      180.000015
 51
      270.000000
  0
LINE
  8
0
 10
       12.095007
 20
       35.800073
 30
        0.000000
 11
       12.095007
 21
       26.500024
 31
        0.000000
  0
LINE
  8
0
 10
      -12.095007
 20
      -35.800073
 30
        0.000000
 11
      -12.095007
 21
      -26.500024
 31
        0.000000
  0
ARC
  8
0
 10
      -12.795020
 20
      -28.300012
 30
        0.000000
 40
        0.500000
 50
        0.000005
 51
       90.000000
  0
ARC
  8
0
 10
      -17.494971
 20
      -28.300012
 30
        0.000000
 40
        0.500000
 50
       90.000000
 51
      179.999990
  0
ARC
  8
0
 10
      -12.795020
 20
      -32.300012
 30
        0.000000
 40
        0.500000
 50
      270.000000
 51
      360.000005
  0
ARC
  8
0
 10
      -17.494971
 20
      -32.300012
 30
        0.000000
 40
        0.500000
 50
      179.999990
 51
      270.000000
  0
LINE
  8
0
 10
      -17.494971
 20
      -32.800012
 30
        0.000000
 11
      -12.795020
 21
      -32.800012
 31
        0.000000
  0
LINE
  8
0
 10
      -18.194983
 20
      -33.800012
 30
        0.000000
 11
      -12.095007
 21
      -33.800012
 31
        0.000000
  0
LINE
  8
0
 10
      -17.994971
 20
      -32.300012
 30
        0.000000
 11
      -17.994971
 21
      -28.300012
 31
        0.000000
  0
LINE
  8
0
 10
      -12.295020
 20
      -32.300012
 30
        0.000000
 11
      -12.295020
 21
      -28.300012
 31
        0.000000
  0
CIRCLE
  8
0
 10
      -15.144995
 20
      -30.300012
 30
        0.000000
 40
        2.000000
  0
LINE
  8
0
 10
      -17.494971
 20
      -27.800012
 30
        0.000000
 11
      -12.795020
 21
      -27.800012
 31
        0.000000
  0
LINE
  8
0
 10
      -15.852087
 20
      -31.007104
 30
        0.000000
 11
      -14.437842
 21
      -29.592920
 31
        0.000000
  0
LINE
  8
0
 10
      -13.730811
 20
      -31.714197
 30
        0.000000
 11
      -16.559241
 21
      -28.885767
 31
        0.000000
  0
LINE
  8
0
 10
       -9.920752
 20
      -41.014185
 30
        0.000000
 11
      -12.749182
 21
      -38.185754
 31
        0.000000
  0
LINE
  8
0
 10
      -12.042029
 20
      -40.307153
 30
        0.000000
 11
      -10.627844
 21
      -38.892908
 31
        0.000000
  0
LINE
  8
0
 10
      -13.684973
 20
      -37.100000
 30
        0.000000
 11
       -8.985022
 21
      -37.100000
 31
        0.000000
  0
LINE
  8
0
 10
      -13.684973
 20
      -42.100000
 30
        0.000000
 11
       -8.985022
 21
      -42.100000
 31
        0.000000
  0
LINE
  8
0
 10
      -14.384985
 20
      -43.100000
 30
        0.000000
 11
       -8.285010
 21
      -43.100000
 31
        0.000000
  0
LINE
  8
0
 10
      -14.184973
 20
      -41.600000
 30
        0.000000
 11
      -14.184973
 21
      -37.600000
 31
        0.000000
  0
CIRCLE
  8
0
 10
      -11.334998
 20
      -39.600000
 30
        0.000000
 40
        2.000000
  0
ARC
  8
0
 10
      -13.684973
 20
      -41.600000
 30
        0.000000
 40
        0.500000
 50
      179.999990
 51
      270.000000
  0
ARC
  8
0
 10
      -13.684973
 20
      -37.600000
 30
        0.000000
 40
        0.500000
 50
       90.000000
 51
      179.999990
  0
LINE
  8
0
 10
       -8.485022
 20
      -41.600000
 30
        0.000000
 11
       -8.485022
 21
      -37.600000
 31
        0.000000
  0
ARC
  8
0
 10
       -8.985022
 20
      -41.600000
 30
        0.000000
 40
        0.500000
 50
      270.000000
 51
      360.000005
  0
ARC
  8
0
 10
       -8.985022
 20
      -37.600000
 30
        0.000000
 40
        0.500000
 50
        0.000005
 51
       90.000000
  0
LINE
  8
0
 10
       -4.475012
 20
      -35.800073
 30
        0.000000
 11
       -4.475012
 21
      -26.500024
 31
        0.000000
  0
ARC
  8
0
 10
       -5.175024
 20
      -28.300012
 30
        0.000000
 40
        0.500000
 50
        0.000005
 51
       90.000000
  0
ARC
  8
0
 10
       -9.874976
 20
      -28.300012
 30
        0.000000
 40
        0.500000
 50
       90.000000
 51
      179.999990
  0
ARC
  8
0
 10
       -5.175024
 20
      -32.300012
 30
        0.000000
 40
        0.500000
 50
      270.000000
 51
      360.000005
  0
ARC
  8
0
 10
       -9.874976
 20
      -32.300012
 30
        0.000000
 40
        0.500000
 50
      179.999990
 51
      270.000000
  0
LINE
  8
0
 10
       -9.874976
 20
      -32.800012
 30
        0.000000
 11
       -5.175024
 21
      -32.800012
 31
        0.000000
  0
LINE
  8
0
 10
      -10.574988
 20
      -33.800012
 30
        0.000000
 11
       -4.475012
 21
      -33.800012
 31
        0.000000
  0
LINE
  8
0
 10
      -10.374976
 20
      -32.300012
 30
        0.000000
 11
      -10.374976
 21
      -28.300012
 31
        0.000000
  0
LINE
  8
0
 10
       -4.675024
 20
      -32.300012
 30
        0.000000
 11
       -4.675024
 21
      -28.300012
 31
        0.000000
  0
CIRCLE
  8
0
 10
       -7.525000
 20
      -30.300012
 30
        0.000000
 40
        2.000000
  0
LINE
  8
0
 10
       -9.874976
 20
      -27.800012
 30
        0.000000
 11
       -5.175024
 21
      -27.800012
 31
        0.000000
  0
LINE
  8
0
 10
       -8.232092
 20
      -31.007104
 30
        0.000000
 11
       -6.817847
 21
      -29.592920
 31
        0.000000
  0
LINE
  8
0
 10
       -6.110815
 20
      -31.714197
 30
        0.000000
 11
       -8.939246
 21
      -28.885767
 31
        0.000000
  0
LINE
  8
0
 10
       -2.300757
 20
      -41.014185
 30
        0.000000
 11
       -5.129187
 21
      -38.185754
 31
        0.000000
  0
LINE
  8
0
 10
       -4.422034
 20
      -40.307153
 30
        0.000000
 11
       -3.007849
 21
      -38.892908
 31
        0.000000
  0
LINE
  8
0
 10
       -6.064978
 20
      -37.100000
 30
        0.000000
 11
       -1.365027
 21
      -37.100000
 31
        0.000000
  0
LINE
  8
0
 10
       -6.064978
 20
      -42.100000
 30
        0.000000
 11
       -1.365027
 21
      -42.100000
 31
        0.000000
  0
LINE
  8
0
 10
       -6.764990
 20
      -43.100000
 30
        0.000000
 11
       -0.665015
 21
      -43.100000
 31
        0.000000
  0
LINE
  8
0
 10
       -6.564978
 20
      -41.600000
 30
        0.000000
 11
       -6.564978
 21
      -37.600000
 31
        0.000000
  0
CIRCLE
  8
0
 10
       -3.715002
 20
      -39.600000
 30
        0.000000
 40
        2.000000
  0
ARC
  8
0
 10
       -6.064978
 20
      -41.600000
 30
        0.000000
 40
        0.500000
 50
      179.999990
 51
      270.000000
  0
ARC
  8
0
 10
       -6.064978
 20
      -37.600000
 30
        0.000000
 40
        0.500000
 50
       90.000000
 51
      179.999990
  0
LINE
  8
0
 10
       -0.865027
 20
      -41.600000
 30
        0.000000
 11
       -0.865027
 21
      -37.600000
 31
        0.000000
  0
ARC
  8
0
 10
       -1.365027
 20
      -41.600000
 30
        0.000000
 40
        0.500000
 50
      270.000000
 51
      360.000005
  0
ARC
  8
0
 10
       -1.365027
 20
      -37.600000
 30
        0.000000
 40
        0.500000
 50
        0.000005
 51
       90.000000
  0
LINE
  8
0
 10
        3.144983
 20
      -35.800073
 30
        0.000000
 11
        3.144983
 21
      -26.500024
 31
        0.000000
  0
ARC
  8
0
 10
        2.444971
 20
      -28.300012
 30
        0.000000
 40
        0.500000
 50
        0.000005
 51
       90.000000
  0
ARC
  8
0
 10
       -2.254980
 20
      -28.300012
 30
        0.000000
 40
        0.500000
 50
       90.000000
 51
      179.999990
  0
ARC
  8
0
 10
        2.444971
 20
      -32.300012
 30
        0.000000
 40
        0.500000
 50
      270.000000
 51
      360.000005
  0
ARC
  8
0
 10
       -2.254980
 20
      -32.300012
 30
        0.000000
 40
        0.500000
 50
      179.999990
 51
      270.000000
  0
LINE
  8
0
 10
       -2.254980
 20
      -32.800012
 30
        0.000000
 11
        2.444971
 21
      -32.800012
 31
        0.000000
  0
LINE
  8
0
 10
       -2.954993
 20
      -33.800012
 30
        0.000000
 11
        3.144983
 21
      -33.800012
 31
        0.000000
  0
LINE
  8
0
 10
       -2.754980
 20
      -32.300012
 30
        0.000000
 11
       -2.754980
 21
      -28.300012
 31
        0.000000
  0
LINE
  8
0
 10
        2.944971
 20
      -32.300012
 30
        0.000000
 11
        2.944971
 21
      -28.300012
 31
        0.000000
  0
CIRCLE
  8
0
 10
        0.094995
 20
      -30.300012
 30
        0.000000
 40
        2.000000
  0
LINE
  8
0
 10
       -2.254980
 20
      -27.800012
 30
        0.000000
 11
        2.444971
 21
      -27.800012
 31
        0.000000
  0
LINE
  8
0
 10
       -0.612097
 20
      -31.007104
 30
        0.000000
 11
        0.802148
 21
      -29.592920
 31
        0.000000
  0
LINE
  8
0
 10
        1.509180
 20
      -31.714197
 30
        0.000000
 11
       -1.319250
 21
      -28.885767
 31
        0.000000
  0
LINE
  8
0
 10
        5.319238
 20
      -41.014185
 30
        0.000000
 11
        2.490808
 21
      -38.185754
 31
        0.000000
  0
LINE
  8
0
 10
        3.197961
 20
      -40.307153
 30
        0.000000
 11
        4.612146
 21
      -38.892908
 31
        0.000000
  0
LINE
  8
0
 10
        1.555017
 20
      -37.100000
 30
        0.000000
 11
        6.254968
 21
      -37.100000
 31
        0.000000
  0
LINE
  8
0
 10
        1.555017
 20
      -42.100000
 30
        0.000000
 11
        6.254968
 21
      -42.100000
 31
        0.000000
  0
LINE
  8
0
 10
        0.855005
 20
      -43.100000
 30
        0.000000
 11
        6.954980
 21
      -43.100000
 31
        0.000000
  0
LINE
  8
0
 10
        1.055017
 20
      -41.600000
 30
        0.000000
 11
        1.055017
 21
      -37.600000
 31
        0.000000
  0
CIRCLE
  8
0
 10
        3.904993
 20
      -39.600000
 30
        0.000000
 40
        2.000000
  0
ARC
  8
0
 10
        1.555017
 20
      -41.600000
 30
        0.000000
 40
        0.500000
 50
      179.999990
 51
      270.000000
  0
ARC
  8
0
 10
        1.555017
 20
      -37.600000
 30
        0.000000
 40
        0.500000
 50
       90.000000
 51
      179.999990
  0
LINE
  8
0
 10
        6.754968
 20
      -41.600000
 30
        0.000000
 11
        6.754968
 21
      -37.600000
 31
        0.000000
  0
ARC
  8
0
 10
        6.254968
 20
      -41.600000
 30
        0.000000
 40
        0.500000
 50
      270.000000
 51
      360.000005
  0
ARC
  8
0
 10
        6.254968
 20
      -37.600000
 30
        0.000000
 40
        0.500000
 50
        0.000005
 51
       90.000000
  0
LINE
  8
0
 10
       10.764978
 20
      -35.800073
 30
        0.000000
 11
       10.764978
 21
      -26.500024
 31
        0.000000
  0
ARC
  8
0
 10
       10.064966
 20
      -28.300012
 30
        0.000000
 40
        0.500000
 50
        0.000005
 51
       90.000000
  0
ARC
  8
0
 10
        5.365015
 20
      -28.300012
 30
        0.000000
 40
        0.500000
 50
       90.000000
 51
      179.999990
  0
ARC
  8
0
 10
       10.064966
 20
      -32.300012
 30
        0.000000
 40
        0.500000
 50
      270.000000
 51
      360.000005
  0
ARC
  8
0
 10
        5.365015
 20
      -32.300012
 30
        0.000000
 40
        0.500000
 50
      179.999990
 51
      270.000000
  0
LINE
  8
0
 10
        5.365015
 20
      -32.800012
 30
        0.000000
 11
       10.064966
 21
      -32.800012
 31
        0.000000
  0
LINE
  8
0
 10
        4.665002
 20
      -33.800012
 30
        0.000000
 11
       10.764978
 21
      -33.800012
 31
        0.000000
  0
LINE
  8
0
 10
        4.865015
 20
      -32.300012
 30
        0.000000
 11
        4.865015
 21
      -28.300012
 31
        0.000000
  0
LINE
  8
0
 10
       10.564966
 20
      -32.300012
 30
        0.000000
 11
       10.564966
 21
      -28.300012
 31
        0.000000
  0
CIRCLE
  8
0
 10
        7.714990
 20
      -30.300012
 30
        0.000000
 40
        2.000000
  0
LINE
  8
0
 10
        5.365015
 20
      -27.800012
 30
        0.000000
 11
       10.064966
 21
      -27.800012
 31
        0.000000
  0
LINE
  8
0
 10
        7.007898
 20
      -31.007104
 30
        0.000000
 11
        8.422144
 21
      -29.592920
 31
        0.000000
  0
LINE
  8
0
 10
        9.129175
 20
      -31.714197
 30
        0.000000
 11
        6.300745
 21
      -28.885767
 31
        0.000000
  0
LINE
  8
0
 10
       12.939233
 20
      -41.014185
 30
        0.000000
 11
       10.110803
 21
      -38.185754
 31
        0.000000
  0
LINE
  8
0
 10
       10.817957
 20
      -40.307153
 30
        0.000000
 11
       12.232141
 21
      -38.892908
 31
        0.000000
  0
LINE
  8
0
 10
        9.175012
 20
      -37.100000
 30
        0.000000
 11
       13.874963
 21
      -37.100000
 31
        0.000000
  0
LINE
  8
0
 10
        9.175012
 20
      -42.100000
 30
        0.000000
 11
       13.874963
 21
      -42.100000
 31
        0.000000
  0
LINE
  8
0
 10
        8.475000
 20
      -43.100000
 30
        0.000000
 11
       14.574976
 21
      -43.100000
 31
        0.000000
  0
LINE
  8
0
 10
        8.675012
 20
      -41.600000
 30
        0.000000
 11
        8.675012
 21
      -37.600000
 31
        0.000000
  0
CIRCLE
  8
0
 10
       11.524988
 20
      -39.600000
 30
        0.000000
 40
        2.000000
  0
ARC
  8
0
 10
        9.175012
 20
      -41.600000
 30
        0.000000
 40
        0.500000
 50
      179.999990
 51
      270.000000
  0
ARC
  8
0
 10
        9.175012
 20
      -37.600000
 30
        0.000000
 40
        0.500000
 50
       90.000000
 51
      179.999990
  0
LINE
  8
0
 10
       14.374963
 20
      -41.600000
 30
        0.000000
 11
       14.374963
 21
      -37.600000
 31
        0.000000
  0
ARC
  8
0
 10
       13.874963
 20
      -41.600000
 30
        0.000000
 40
        0.500000
 50
      270.000000
 51
      360.000005
  0
ARC
  8
0
 10
       13.874963
 20
      -37.600000
 30
        0.000000
 40
        0.500000
 50
        0.000005
 51
       90.000000
  0
LINE
  8
0
 10
       18.384973
 20
      -35.800073
 30
        0.000000
 11
       18.384973
 21
      -26.500024
 31
        0.000000
  0
ARC
  8
0
 10
       17.684961
 20
      -28.300012
 30
        0.000000
 40
        0.500000
 50
        0.000005
 51
       90.000000
  0
ARC
  8
0
 10
       12.985010
 20
      -28.300012
 30
        0.000000
 40
        0.500000
 50
       90.000000
 51
      179.999990
  0
ARC
  8
0
 10
       17.684961
 20
      -32.300012
 30
        0.000000
 40
        0.500000
 50
      270.000000
 51
      360.000005
  0
ARC
  8
0
 10
       12.985010
 20
      -32.300012
 30
        0.000000
 40
        0.500000
 50
      179.999990
 51
      270.000000
  0
LINE
  8
0
 10
       12.985010
 20
      -32.800012
 30
        0.000000
 11
       17.684961
 21
      -32.800012
 31
        0.000000
  0
LINE
  8
0
 10
       12.284998
 20
      -33.800012
 30
        0.000000
 11
       18.384973
 21
      -33.800012
 31
        0.000000
  0
LINE
  8
0
 10
       12.485010
 20
      -32.300012
 30
        0.000000
 11
       12.485010
 21
      -28.300012
 31
        0.000000
  0
LINE
  8
0
 10
       18.184961
 20
      -32.300012
 30
        0.000000
 11
       18.184961
 21
      -28.300012
 31
        0.000000
  0
CIRCLE
  8
0
 10
       15.334985
 20
      -30.300012
 30
        0.000000
 40
        2.000000
  0
LINE
  8
0
 10
       12.985010
 20
      -27.800012
 30
        0.000000
 11
       17.684961
 21
      -27.800012
 31
        0.000000
  0
LINE
  8
0
 10
       14.627893
 20
      -31.007104
 30
        0.000000
 11
       16.042139
 21
      -29.592920
 31
        0.000000
  0
LINE
  8
0
 10
       16.749170
 20
      -31.714197
 30
        0.000000
 11
       13.920740
 21
      -28.885767
 31
        0.000000
  0
LINE
  8
0
 10
       20.559229
 20
      -41.014185
 30
        0.000000
 11
       17.730798
 21
      -38.185754
 31
        0.000000
  0
LINE
  8
0
 10
       18.437952
 20
      -40.307153
 30
        0.000000
 11
       19.852136
 21
      -38.892908
 31
        0.000000
  0
LINE
  8
0
 10
       16.795007
 20
      -37.100000
 30
        0.000000
 11
       21.494958
 21
      -37.100000
 31
        0.000000
  0
LINE
  8
0
 10
       16.795007
 20
      -42.100000
 30
        0.000000
 11
       21.494958
 21
      -42.100000
 31
        0.000000
  0
LINE
  8
0
 10
       16.094995
 20
      -43.100000
 30
        0.000000
 11
       22.194971
 21
      -43.100000
 31
        0.000000
  0
LINE
  8
0
 10
       16.295007
 20
      -41.600000
 30
        0.000000
 11
       16.295007
 21
      -37.600000
 31
        0.000000
  0
CIRCLE
  8
0
 10
       19.144983
 20
      -39.600000
 30
        0.000000
 40
        2.000000
  0
ARC
  8
0
 10
       16.795007
 20
      -41.600000
 30
        0.000000
 40
        0.500000
 50
      179.999990
 51
      270.000000
  0
ARC
  8
0
 10
       16.795007
 20
      -37.600000
 30
        0.000000
 40
        0.500000
 50
       90.000000
 51
      179.999990
  0
LINE
  8
0
 10
       21.994958
 20
      -41.600000
 30
        0.000000
 11
       21.994958
 21
      -37.600000
 31
        0.000000
  0
ARC
  8
0
 10
       21.494958
 20
      -41.600000
 30
        0.000000
 40
        0.500000
 50
      270.000000
 51
      360.000005
  0
ARC
  8
0
 10
       21.494958
 20
      -37.600000
 30
        0.000000
 40
        0.500000
 50
        0.000005
 51
       90.000000
  0
LINE
  8
0
 10
      -19.849982
 20
      -45.000000
 30
        0.000000
 11
      -19.849982
 21
      -25.500024
 31
        0.000000
  0
LINE
  8
0
 10
      -18.195013
 20
      -35.800073
 30
        0.000000
 11
       22.194971
 21
      -35.800073
 31
        0.000000
  0
LINE
  8
0
 10
      -18.195013
 20
      -45.000000
 30
        0.000000
 11
      -18.195013
 21
      -26.500024
 31
        0.000000
  0
LINE
  8
0
 10
      -19.849982
 20
      -25.500024
 30
        0.000000
 11
       23.850000
 21
      -25.500024
 31
        0.000000
  0
LINE
  8
0
 10
      -18.195013
 20
      -26.500024
 30
        0.000000
 11
       22.194971
 21
      -26.500024
 31
        0.000000
  0
LINE
  8
0
 10
       23.850000
 20
      -45.000000
 30
        0.000000
 11
       23.850000
 21
      -25.500024
 31
        0.000000
  0
LINE
  8
0
 10
      -18.194983
 20
      -35.800073
 30
        0.000000
 11
      -18.194983
 21
      -26.500024
 31
        0.000000
  0
LINE
  8
0
 10
      -10.574988
 20
      -35.800073
 30
        0.000000
 11
      -10.574988
 21
      -26.500024
 31
        0.000000
  0
LINE
  8
0
 10
       -2.954993
 20
      -35.800073
 30
        0.000000
 11
       -2.954993
 21
      -26.500024
 31
        0.000000
  0
LINE
  8
0
 10
        4.665002
 20
      -35.800073
 30
        0.000000
 11
        4.665002
 21
      -26.500024
 31
        0.000000
  0
LINE
  8
0
 10
       12.284998
 20
      -35.800073
 30
        0.000000
 11
       12.284998
 21
      -26.500024
 31
        0.000000
  0
LINE
  8
0
 10
      -14.384985
 20
      -45.000000
 30
        0.000000
 11
      -14.384985
 21
      -35.800073
 31
        0.000000
  0
LINE
  8
0
 10
       -8.285010
 20
      -45.000000
 30
        0.000000
 11
       -8.285010
 21
      -35.800073
 31
        0.000000
  0
ENDSEC
  0
EOF
