  0
SECTION
  2
HEADER
  9
$ACADVER
  1
AC1006
  9
$INSBASE
 10
0.0
 20
0.0
 30
0.0
  9
$EXTMIN
 10
     -144.365448
 20
     -144.365448
  9
$EXTMAX
 10
      178.500244
 20
      178.500244
  9
$LIMMIN
 10
     -144.365448
 20
     -144.365448
  9
$LIMMAX
 10
      178.500244
 20
      178.500244
  9
$VIEWCTR
 10
       17.067398
 20
       17.067398
  9
$ORTHOMODE
 70
     0
  9
$ANGBASE
 50
0.0
  9
$ANGDIR
 70
     0
  9
$SPLINETYPE
 70
     6
  9
$SPLINESEGS
 70
     8
9
$DIMASZ
 40
        6.000000
9
$DIMEXE
 40
        1.500000
9
$DIMEXO
 40
        2.500000
9
$DIMTXT
 40
        5.000000
9
$DIMGAP
 40
        1.500000
9
$DIMTAD
 70
1
9
$DIMTIH
 70
0
9
$DIMTOH
 70
0
  0
ENDSEC
  0
SECTION
  2
TABLES
  0
TABLE
  2
LTYPE
 70
     5
  0
LTYPE
  2
CONTINUOUS
 70
    64
  3
SOLID LINE
 72
    65
 73
     0
 40
0.0
  0
LTYPE
  2
DASHED
 70
    64
  3
-- -- -- -- -- --
 72
    65
 73
     2
 40
  0.75  
 49
  0.50  
 49
 -0.25  
  0
LTYPE
  2
DOT
 70
    64
  3
....................
 72
    65
 73
     2
 40
  0.25  
 49
  0.02  
 49
 -0.23  
  0
LTYPE
  2
CENTER
 70
    64
  3
-- . -- . -- . -- .
 72
    65
 73
    4
 40
  2.00  
 49
  1.25  
 49
 -0.25  
 49
  0.25  
 49
 -0.25  
  0
LTYPE
  2
PHANTOM
 70
    64
  3
-- .. -- .. -- ..
 72
    65
 73
    6
 40
  2.50  
 49
  1.25  
 49
 -0.25  
 49
  0.25  
 49
 -0.25  
 49
  0.25  
 49
 -0.25  
  0
ENDTAB
  0
TABLE
  2
LAYER
 70
     1
  0
LAYER
  2
0
 70
    64
 62
     3
  6
CONTINUOUS
  0
ENDTAB
  0
TABLE
  2
STYLE
 70
     2
  0
STYLE
  2
STANDARD
 70
    64
 40
0.0
 41
1.0
 50
0.0
 71
     0
 42
5.0
  3
ROMANS
  4
BIGFONT
  0
STYLE
  2
BIGFONT
 70
    64
 40
0.0
 41
1.0
 50
0.0
 71
     0
 42
5.0
  3
ROMANS
  4
BIGFONT
  0
ENDTAB
  0
TABLE
  2
VIEW
 70
     0
  0
ENDTAB
  0
TABLE
  2
UCS
 70
     0
  0
ENDTAB
  0
TABLE
  2
DWGMGR
 70
     0
  0
ENDTAB
  0
ENDSEC
  0
SECTION
  2
BLOCKS
  0
BLOCK
  8
0
  2
BLK0001
 70
    64
 10
        0.000000
 20
        0.000000
  0
TEXT
  8
0
 62
  2
 10
      112.480209
 20
     -138.367950
 30
        0.000000
 40
        3.340000
  1
１０５
 50
        0.000000
 41
        1.000000
 51
        0.000000
  7
BIGFONT
  0
LINE
  8
0
 62
  2
 10
      174.999954
 20
     -125.500000
 30
        0.000000
 11
      174.999954
 21
     -140.767944
 31
        0.000000
  0
LINE
  8
0
 62
  2
 10
       70.000000
 20
     -126.388916
 30
        0.000000
 11
       70.000000
 21
     -140.767944
 31
        0.000000
  0
LINE
  8
0
 62
  2
 10
      171.999954
 20
     -140.353348
 30
        0.000000
 11
      174.999954
 21
     -139.567947
 31
        0.000000
  0
LINE
  8
0
 62
  2
 10
      174.999954
 20
     -139.567947
 30
        0.000000
 11
      171.999954
 21
     -138.782547
 31
        0.000000
  0
LINE
  8
0
 62
  2
 10
       73.000000
 20
     -138.782547
 30
        0.000000
 11
       70.000000
 21
     -139.567947
 31
        0.000000
  0
LINE
  8
0
 62
  2
 10
       70.000000
 20
     -139.567947
 30
        0.000000
 11
       73.000000
 21
     -140.353348
 31
        0.000000
  0
LINE
  8
0
 62
  2
 10
      174.999954
 20
     -139.567947
 30
        0.000000
 11
       70.000000
 21
     -139.567947
 31
        0.000000
  0
ENDBLK
  0
BLOCK
  8
0
  2
BLK0002
 70
    64
 10
        0.000000
 20
        0.000000
  0
TEXT
  8
0
 62
  2
 10
       33.955940
 20
       -6.056659
 30
        0.000000
 40
        3.340000
  1
２５０
 50
       90.000000
 41
        1.000000
 51
        0.000000
  7
BIGFONT
  0
LINE
  8
0
 62
  2
 10
       18.750000
 20
      125.000000
 30
        0.000000
 11
       36.355942
 21
      125.000000
 31
        0.000000
  0
LINE
  8
0
 62
  2
 10
       18.750000
 20
     -125.000000
 30
        0.000000
 11
       36.355942
 21
     -125.000000
 31
        0.000000
  0
LINE
  8
0
 62
  2
 10
       35.941341
 20
      122.000000
 30
        0.000000
 11
       35.155941
 21
      125.000000
 31
        0.000000
  0
LINE
  8
0
 62
  2
 10
       35.155941
 20
      125.000000
 30
        0.000000
 11
       34.370541
 21
      122.000000
 31
        0.000000
  0
LINE
  8
0
 62
  2
 10
       34.370541
 20
     -122.000000
 30
        0.000000
 11
       35.155941
 21
     -125.000000
 31
        0.000000
  0
LINE
  8
0
 62
  2
 10
       35.155941
 20
     -125.000000
 30
        0.000000
 11
       35.941338
 21
     -122.000000
 31
        0.000000
  0
LINE
  8
0
 62
  2
 10
       35.155941
 20
      125.000000
 30
        0.000000
 11
       35.155941
 21
     -125.000000
 31
        0.000000
  0
ENDBLK
  0
BLOCK
  8
0
  2
BLK0003
 70
    64
 10
        0.000000
 20
        0.000000
  0
TEXT
  8
0
 62
  2
 10
       -7.522929
 20
     -141.965454
 30
        0.000000
 40
        3.340000
  1
３３．５
 50
        0.000000
 41
        1.000000
 51
        0.000000
  7
BIGFONT
  0
LINE
  8
0
 62
  2
 10
      -16.750000
 20
     -127.000000
 30
        0.000000
 11
      -16.750000
 21
     -144.365448
 31
        0.000000
  0
LINE
  8
0
 62
  2
 10
       16.750000
 20
     -127.000000
 30
        0.000000
 11
       16.750000
 21
     -144.365448
 31
        0.000000
  0
LINE
  8
0
 62
  2
 10
      -13.750000
 20
     -142.380051
 30
        0.000000
 11
      -16.750000
 21
     -143.165451
 31
        0.000000
  0
LINE
  8
0
 62
  2
 10
      -16.750000
 20
     -143.165451
 30
        0.000000
 11
      -13.750000
 21
     -143.950851
 31
        0.000000
  0
LINE
  8
0
 62
  2
 10
       13.750000
 20
     -143.950851
 30
        0.000000
 11
       16.750000
 21
     -143.165451
 31
        0.000000
  0
LINE
  8
0
 62
  2
 10
       16.750000
 20
     -143.165451
 30
        0.000000
 11
       13.750000
 21
     -142.380051
 31
        0.000000
  0
LINE
  8
0
 62
  2
 10
      -16.750000
 20
     -143.165451
 30
        0.000000
 11
       16.750000
 21
     -143.165451
 31
        0.000000
  0
ENDBLK
  0
ENDSEC
  0
SECTION
  2
ENTITIES
  0
LINE
  8
0
 10
      172.499956
 20
      165.500244
 30
        0.000000
 11
      164.999956
 21
      165.500244
 31
        0.000000
  0
INSERT
  8
0
 62
  5
  2
BLK0001
 10
        0.000000
 20
        0.000000
  0
INSERT
  8
0
 62
  5
  2
BLK0002
 10
        0.000000
 20
        0.000000
  0
INSERT
  8
0
 62
  5
  2
BLK0003
 10
        0.000000
 20
        0.000000
  0
TEXT
  8
0
 62
  2
 10
      -15.263775
 20
      167.650678
 30
        0.000000
 40
        4.175000
  1
ＪＷ１２ＤＵ
 50
        0.000000
 41
        1.000000
 51
        0.000000
  7
BIGFONT
  0
LINE
  8
0
 10
       16.750000
 20
      125.000000
 30
        0.000000
 11
       16.750000
 21
     -125.000000
 31
        0.000000
  0
LINE
  8
0
 10
       16.750000
 20
      125.000000
 30
        0.000000
 11
      -16.750000
 21
      125.000000
 31
        0.000000
  0
LINE
  8
0
 10
       16.750000
 20
     -125.000000
 30
        0.000000
 11
      -16.750000
 21
     -125.000000
 31
        0.000000
  0
LINE
  8
0
 10
      -16.750000
 20
      -75.000244
 30
        0.000000
 11
       16.750000
 21
      -75.000244
 31
        0.000000
  0
LINE
  8
0
 10
      -16.750000
 20
       75.000000
 30
        0.000000
 11
       16.750000
 21
       75.000000
 31
        0.000000
  0
CIRCLE
  8
0
 10
        1.500000
 20
      104.999756
 30
        0.000000
 40
        1.000000
  0
CIRCLE
  8
0
 10
        1.500000
 20
      101.999756
 30
        0.000000
 40
        1.000000
  0
CIRCLE
  8
0
 10
        1.500000
 20
       98.999756
 30
        0.000000
 40
        1.000000
  0
CIRCLE
  8
0
 10
        1.500000
 20
       95.999756
 30
        0.000000
 40
        1.000000
  0
CIRCLE
  8
0
 10
        1.500000
 20
       92.999756
 30
        0.000000
 40
        1.000000
  0
LINE
  8
0
 10
       15.300049
 20
      121.399994
 30
        0.000000
 11
      -14.800049
 21
      121.399994
 31
        0.000000
  0
LINE
  8
0
 10
       15.300049
 20
      114.399994
 30
        0.000000
 11
       15.300049
 21
      121.399994
 31
        0.000000
  0
LINE
  8
0
 10
      -14.800049
 20
      121.399994
 30
        0.000000
 11
      -14.800049
 21
      114.399994
 31
        0.000000
  0
LINE
  8
0
 10
      -14.800049
 20
      114.399994
 30
        0.000000
 11
       15.300049
 21
      114.399994
 31
        0.000000
  0
LINE
  8
0
 10
        0.808716
 20
      -82.000244
 30
        0.000000
 11
        5.391235
 21
      -82.000244
 31
        0.000000
  0
LINE
  8
0
 10
       -1.900024
 20
      -84.708954
 30
        0.000000
 11
       -1.900024
 21
      -89.291534
 31
        0.000000
  0
LINE
  8
0
 10
        0.808716
 20
      -92.000244
 30
        0.000000
 11
        5.391235
 21
      -92.000244
 31
        0.000000
  0
LINE
  8
0
 10
        8.099976
 20
      -84.708954
 30
        0.000000
 11
        8.099976
 21
      -89.291534
 31
        0.000000
  0
CIRCLE
  8
0
 10
        3.099976
 20
      -87.000244
 30
        0.000000
 40
        2.000000
  0
LINE
  8
0
 10
        3.599976
 20
      -86.500732
 30
        0.000000
 11
        1.599976
 21
      -86.500732
 31
        0.000000
  0
LINE
  8
0
 10
        3.599976
 20
      -87.500732
 30
        0.000000
 11
        1.599976
 21
      -87.500732
 31
        0.000000
  0
LINE
  8
0
 10
        1.599976
 20
      -86.500732
 30
        0.000000
 11
        1.599976
 21
      -87.500732
 31
        0.000000
  0
LINE
  8
0
 10
        3.599976
 20
      -86.000732
 30
        0.000000
 11
        3.599976
 21
      -86.500732
 31
        0.000000
  0
LINE
  8
0
 10
        4.599976
 20
      -87.000732
 30
        0.000000
 11
        3.599976
 21
      -86.000732
 31
        0.000000
  0
LINE
  8
0
 10
        4.599976
 20
      -87.000732
 30
        0.000000
 11
        3.599976
 21
      -88.000732
 31
        0.000000
  0
LINE
  8
0
 10
        3.599976
 20
      -87.500732
 30
        0.000000
 11
        3.599976
 21
      -88.000732
 31
        0.000000
  0
CIRCLE
  8
0
 10
        3.099976
 20
      -87.000244
 30
        0.000000
 40
        5.500000
  0
ARC
  8
0
 10
        8.500000
 20
      -96.500244
 30
        0.000000
 40
        1.000000
 50
        0.000000
 51
       90.000000
  0
ARC
  8
0
 10
        8.500000
 20
     -114.500275
 30
        0.000000
 40
        1.000000
 50
      270.000000
 51
      360.000000
  0
LINE
  8
0
 10
        8.500000
 20
      -95.500244
 30
        0.000000
 11
        8.500000
 21
     -115.500275
 31
        0.000000
  0
LINE
  8
0
 10
        9.500000
 20
      -96.500244
 30
        0.000000
 11
        9.500000
 21
     -114.500275
 31
        0.000000
  0
LINE
  8
0
 10
        8.500000
 20
      -95.500244
 30
        0.000000
 11
       -3.500000
 21
      -95.500244
 31
        0.000000
  0
ARC
  8
0
 10
       -3.500000
 20
      -96.500244
 30
        0.000000
 40
        1.000000
 50
       90.000000
 51
      180.000015
  0
LINE
  8
0
 10
        8.500000
 20
     -115.500275
 30
        0.000000
 11
       -3.500000
 21
     -115.500275
 31
        0.000000
  0
ARC
  8
0
 10
       -3.500000
 20
     -114.500275
 30
        0.000000
 40
        1.000000
 50
      180.000015
 51
      270.000000
  0
LINE
  8
0
 10
       -4.500000
 20
      -96.500244
 30
        0.000000
 11
       -4.500000
 21
     -114.500275
 31
        0.000000
  0
LINE
  8
0
 10
        8.500000
 20
      -96.290245
 30
        0.000000
 11
       -3.500000
 21
      -96.290245
 31
        0.000000
  0
LINE
  8
0
 10
        8.500000
 20
      -97.270256
 30
        0.000000
 11
       -3.500000
 21
      -97.270256
 31
        0.000000
  0
LINE
  8
0
 10
        8.500000
 20
      -98.490257
 30
        0.000000
 11
       -3.500000
 21
      -98.490257
 31
        0.000000
  0
LINE
  8
0
 10
        8.500000
 20
     -104.890251
 30
        0.000000
 11
       -3.500000
 21
     -104.890251
 31
        0.000000
  0
LINE
  8
0
 10
        8.500000
 20
     -106.110252
 30
        0.000000
 11
       -3.500000
 21
     -106.110252
 31
        0.000000
  0
LINE
  8
0
 10
        8.500000
 20
     -112.510246
 30
        0.000000
 11
       -3.500000
 21
     -112.510246
 31
        0.000000
  0
LINE
  8
0
 10
        8.500000
 20
     -113.730247
 30
        0.000000
 11
       -3.500000
 21
     -113.730247
 31
        0.000000
  0
LINE
  8
0
 10
        8.500000
 20
     -114.710243
 30
        0.000000
 11
       -3.500000
 21
     -114.710243
 31
        0.000000
  0
LINE
  8
0
 10
       -3.500000
 20
     -114.710243
 30
        0.000000
 11
       -3.500000
 21
      -96.290245
 31
        0.000000
  0
CIRCLE
  8
0
 10
        3.000000
 20
     -109.310249
 30
        0.000000
 40
        2.750000
  0
LINE
  8
0
 10
        2.480988
 20
     -109.829262
 30
        0.000000
 11
        2.074707
 21
     -109.639809
 31
        0.000000
  0
LINE
  8
0
 10
        2.074707
 20
     -109.639809
 30
        0.000000
 11
        1.200012
 21
     -109.624550
 31
        0.000000
  0
LINE
  8
0
 10
        1.200012
 20
     -109.624550
 30
        0.000000
 11
        1.200012
 21
     -109.310249
 31
        0.000000
  0
LINE
  8
0
 10
        2.480988
 20
     -109.829262
 30
        0.000000
 11
        2.670410
 21
     -110.235527
 31
        0.000000
  0
LINE
  8
0
 10
        2.670410
 20
     -110.235527
 30
        0.000000
 11
        2.685699
 21
     -111.110237
 31
        0.000000
  0
LINE
  8
0
 10
        2.685699
 20
     -111.110237
 30
        0.000000
 11
        2.999969
 21
     -111.110237
 31
        0.000000
  0
LINE
  8
0
 10
        2.670410
 20
     -108.384987
 30
        0.000000
 11
        2.685669
 21
     -107.510262
 31
        0.000000
  0
LINE
  8
0
 10
        2.480988
 20
     -108.791237
 30
        0.000000
 11
        2.670410
 21
     -108.384987
 31
        0.000000
  0
LINE
  8
0
 10
        2.480988
 20
     -108.791237
 30
        0.000000
 11
        2.074707
 21
     -108.980690
 31
        0.000000
  0
LINE
  8
0
 10
        2.074707
 20
     -108.980690
 30
        0.000000
 11
        1.200012
 21
     -108.995949
 31
        0.000000
  0
LINE
  8
0
 10
        1.200012
 20
     -108.995949
 30
        0.000000
 11
        1.200012
 21
     -109.310249
 31
        0.000000
  0
LINE
  8
0
 10
        3.314331
 20
     -111.110237
 30
        0.000000
 11
        3.000031
 21
     -111.110237
 31
        0.000000
  0
LINE
  8
0
 10
        3.329590
 20
     -110.235527
 30
        0.000000
 11
        3.314331
 21
     -111.110237
 31
        0.000000
  0
LINE
  8
0
 10
        3.519012
 20
     -109.829262
 30
        0.000000
 11
        3.329590
 21
     -110.235527
 31
        0.000000
  0
LINE
  8
0
 10
        3.519012
 20
     -109.829262
 30
        0.000000
 11
        3.925293
 21
     -109.639809
 31
        0.000000
  0
LINE
  8
0
 10
        3.925293
 20
     -109.639809
 30
        0.000000
 11
        4.799988
 21
     -109.624550
 31
        0.000000
  0
LINE
  8
0
 10
        4.799988
 20
     -109.624550
 30
        0.000000
 11
        4.799988
 21
     -109.310249
 31
        0.000000
  0
LINE
  8
0
 10
        4.799988
 20
     -108.995949
 30
        0.000000
 11
        4.799988
 21
     -109.310249
 31
        0.000000
  0
LINE
  8
0
 10
        3.925293
 20
     -108.980690
 30
        0.000000
 11
        4.799988
 21
     -108.995949
 31
        0.000000
  0
LINE
  8
0
 10
        3.519012
 20
     -108.791237
 30
        0.000000
 11
        3.925293
 21
     -108.980690
 31
        0.000000
  0
LINE
  8
0
 10
        3.519012
 20
     -108.791237
 30
        0.000000
 11
        3.329590
 21
     -108.384987
 31
        0.000000
  0
LINE
  8
0
 10
        3.329590
 20
     -108.384987
 30
        0.000000
 11
        3.314301
 21
     -107.510262
 31
        0.000000
  0
LINE
  8
0
 10
        2.685669
 20
     -107.510262
 30
        0.000000
 11
        3.314301
 21
     -107.510262
 31
        0.000000
  0
CIRCLE
  8
0
 10
        3.000000
 20
     -101.690254
 30
        0.000000
 40
        2.750000
  0
LINE
  8
0
 10
        2.480988
 20
     -102.209251
 30
        0.000000
 11
        2.074707
 21
     -102.019814
 31
        0.000000
  0
LINE
  8
0
 10
        2.074707
 20
     -102.019814
 30
        0.000000
 11
        1.200012
 21
     -102.004539
 31
        0.000000
  0
LINE
  8
0
 10
        1.200012
 20
     -102.004539
 30
        0.000000
 11
        1.200012
 21
     -101.690254
 31
        0.000000
  0
LINE
  8
0
 10
        2.480988
 20
     -102.209251
 30
        0.000000
 11
        2.670410
 21
     -102.615517
 31
        0.000000
  0
LINE
  8
0
 10
        2.670410
 20
     -102.615517
 30
        0.000000
 11
        2.685669
 21
     -103.490227
 31
        0.000000
  0
LINE
  8
0
 10
        2.685669
 20
     -103.490227
 30
        0.000000
 11
        2.999969
 21
     -103.490227
 31
        0.000000
  0
LINE
  8
0
 10
        2.670410
 20
     -100.764977
 30
        0.000000
 11
        2.685669
 21
      -99.890266
 31
        0.000000
  0
LINE
  8
0
 10
        2.480988
 20
     -101.171242
 30
        0.000000
 11
        2.670410
 21
     -100.764977
 31
        0.000000
  0
LINE
  8
0
 10
        2.480988
 20
     -101.171242
 30
        0.000000
 11
        2.074707
 21
     -101.360680
 31
        0.000000
  0
LINE
  8
0
 10
        2.074707
 20
     -101.360680
 30
        0.000000
 11
        1.200012
 21
     -101.375954
 31
        0.000000
  0
LINE
  8
0
 10
        1.200012
 20
     -101.375954
 30
        0.000000
 11
        1.200012
 21
     -101.690254
 31
        0.000000
  0
LINE
  8
0
 10
        3.314301
 20
     -103.490227
 30
        0.000000
 11
        3.000031
 21
     -103.490227
 31
        0.000000
  0
LINE
  8
0
 10
        3.329590
 20
     -102.615517
 30
        0.000000
 11
        3.314301
 21
     -103.490227
 31
        0.000000
  0
LINE
  8
0
 10
        3.519012
 20
     -102.209251
 30
        0.000000
 11
        3.329590
 21
     -102.615517
 31
        0.000000
  0
LINE
  8
0
 10
        3.519012
 20
     -102.209251
 30
        0.000000
 11
        3.925293
 21
     -102.019814
 31
        0.000000
  0
LINE
  8
0
 10
        3.925293
 20
     -102.019814
 30
        0.000000
 11
        4.799988
 21
     -102.004539
 31
        0.000000
  0
LINE
  8
0
 10
        4.799988
 20
     -102.004539
 30
        0.000000
 11
        4.799988
 21
     -101.690254
 31
        0.000000
  0
LINE
  8
0
 10
        4.799988
 20
     -101.375954
 30
        0.000000
 11
        4.799988
 21
     -101.690254
 31
        0.000000
  0
LINE
  8
0
 10
        3.925293
 20
     -101.360680
 30
        0.000000
 11
        4.799988
 21
     -101.375954
 31
        0.000000
  0
LINE
  8
0
 10
        3.519012
 20
     -101.171242
 30
        0.000000
 11
        3.925293
 21
     -101.360680
 31
        0.000000
  0
LINE
  8
0
 10
        3.519012
 20
     -101.171242
 30
        0.000000
 11
        3.329590
 21
     -100.764977
 31
        0.000000
  0
LINE
  8
0
 10
        3.329590
 20
     -100.764977
 30
        0.000000
 11
        3.314301
 21
      -99.890266
 31
        0.000000
  0
LINE
  8
0
 10
        2.685669
 20
      -99.890266
 30
        0.000000
 11
        3.314301
 21
      -99.890266
 31
        0.000000
  0
LINE
  8
0
 10
        7.000000
 20
     -114.710243
 30
        0.000000
 11
        7.000000
 21
     -113.730247
 31
        0.000000
  0
LINE
  8
0
 10
       -2.000000
 20
     -114.710243
 30
        0.000000
 11
       -2.000000
 21
     -113.730247
 31
        0.000000
  0
LINE
  8
0
 10
       -2.000000
 20
     -112.510246
 30
        0.000000
 11
       -2.000000
 21
     -106.110252
 31
        0.000000
  0
LINE
  8
0
 10
        7.000000
 20
     -112.510246
 30
        0.000000
 11
        7.000000
 21
     -106.110252
 31
        0.000000
  0
LINE
  8
0
 10
       -2.000000
 20
     -104.890251
 30
        0.000000
 11
       -2.000000
 21
      -98.490257
 31
        0.000000
  0
LINE
  8
0
 10
       -2.000000
 20
      -97.270256
 30
        0.000000
 11
       -2.000000
 21
      -96.290245
 31
        0.000000
  0
LINE
  8
0
 10
        7.000000
 20
     -104.890251
 30
        0.000000
 11
        7.000000
 21
      -98.490257
 31
        0.000000
  0
LINE
  8
0
 10
        7.000000
 20
      -97.270256
 30
        0.000000
 11
        7.000000
 21
      -96.290245
 31
        0.000000
  0
LINE
  8
0
 10
        6.200012
 20
     -112.510246
 30
        0.000000
 11
        6.200012
 21
     -106.110252
 31
        0.000000
  0
LINE
  8
0
 10
        6.200012
 20
     -104.890251
 30
        0.000000
 11
        6.200012
 21
      -98.490257
 31
        0.000000
  0
LINE
  8
0
 10
       -0.200012
 20
     -112.510246
 30
        0.000000
 11
       -0.200012
 21
     -106.110252
 31
        0.000000
  0
LINE
  8
0
 10
       -0.200012
 20
     -104.890251
 30
        0.000000
 11
       -0.200012
 21
      -98.490257
 31
        0.000000
  0
LINE
  8
0
 10
        6.109985
 20
       41.710449
 30
        0.000000
 11
        6.109985
 21
        8.289063
 31
        0.000000
  0
ARC
  8
0
 10
       -0.109985
 20
       42.549683
 30
        0.000000
 40
        1.599976
 50
       90.000000
 51
      180.000015
  0
ARC
  8
0
 10
       -0.109985
 20
        7.449707
 30
        0.000000
 40
        1.599976
 50
      180.000015
 51
      270.000000
  0
LINE
  8
0
 10
       -0.109985
 20
       44.149780
 30
        0.000000
 11
        4.787842
 21
       43.286133
 31
        0.000000
  0
LINE
  8
0
 10
       -0.109985
 20
        5.849731
 30
        0.000000
 11
        4.787842
 21
        6.713379
 31
        0.000000
  0
ARC
  8
0
 10
        4.510010
 20
        8.289063
 30
        0.000000
 40
        1.599990
 50
      279.999894
 51
      360.000000
  0
ARC
  8
0
 10
        4.510010
 20
       41.710449
 30
        0.000000
 40
        1.599976
 50
        0.000000
 51
       80.004474
  0
LINE
  8
0
 10
        9.449951
 20
       47.799683
 30
        0.000000
 11
        9.449951
 21
       40.799683
 31
        0.000000
  0
LINE
  8
0
 10
        9.449951
 20
        2.199707
 30
        0.000000
 11
        9.449951
 21
        9.199707
 31
        0.000000
  0
LINE
  8
0
 10
        8.349976
 20
       56.399780
 30
        0.000000
 11
        4.650024
 21
       56.399780
 31
        0.000000
  0
LINE
  8
0
 10
        3.199951
 20
       55.399780
 30
        0.000000
 11
        1.199951
 21
       55.399780
 31
        0.000000
  0
LINE
  8
0
 10
       -0.250000
 20
       56.399780
 30
        0.000000
 11
       -3.950073
 21
       56.399780
 31
        0.000000
  0
LINE
  8
0
 10
        0.199951
 20
       56.899780
 30
        0.000000
 11
        0.199951
 21
       55.399780
 31
        0.000000
  0
LINE
  8
0
 10
        4.199951
 20
       56.899780
 30
        0.000000
 11
        4.199951
 21
       55.399780
 31
        0.000000
  0
LINE
  8
0
 10
        1.199951
 20
       56.899780
 30
        0.000000
 11
        1.199951
 21
       55.399780
 31
        0.000000
  0
LINE
  8
0
 10
        3.199951
 20
       56.899780
 30
        0.000000
 11
        3.199951
 21
       55.399780
 31
        0.000000
  0
LINE
  8
0
 10
        4.650024
 20
       55.399780
 30
        0.000000
 11
        4.199951
 21
       55.399780
 31
        0.000000
  0
LINE
  8
0
 10
        0.199951
 20
       55.399780
 30
        0.000000
 11
       -0.250000
 21
       55.399780
 31
        0.000000
  0
LINE
  8
0
 10
       -3.421143
 20
       66.222900
 30
        0.000000
 11
        0.927368
 21
       73.193604
 31
        0.000000
  0
LINE
  8
0
 10
        3.472656
 20
       73.193604
 30
        0.000000
 11
        7.821167
 21
       66.222900
 31
        0.000000
  0
LINE
  8
0
 10
       -3.496948
 20
       63.706543
 30
        0.000000
 11
        0.199951
 21
       56.899780
 31
        0.000000
  0
LINE
  8
0
 10
        7.896851
 20
       63.706543
 30
        0.000000
 11
        4.199951
 21
       56.899780
 31
        0.000000
  0
ARC
  8
0
 10
        2.199951
 20
       72.399780
 30
        0.000000
 40
        1.500010
 50
       31.954966
 51
      148.041815
  0
LINE
  8
0
 10
        2.624268
 20
       72.664429
 30
        0.000000
 11
        6.972656
 21
       65.693604
 31
        0.000000
  0
LINE
  8
0
 10
        1.775757
 20
       72.664429
 30
        0.000000
 11
       -2.572632
 21
       65.693604
 31
        0.000000
  0
LINE
  8
0
 10
       -2.618164
 20
       64.183838
 30
        0.000000
 11
        1.078735
 21
       57.376953
 31
        0.000000
  0
LINE
  8
0
 10
        7.018188
 20
       64.183838
 30
        0.000000
 11
        3.321167
 21
       57.376953
 31
        0.000000
  0
ARC
  8
0
 10
        4.199951
 20
       56.899780
 30
        0.000000
 40
        1.000007
 50
      151.495309
 51
      180.000015
  0
ARC
  8
0
 10
        0.199951
 20
       56.899780
 30
        0.000000
 40
        1.000000
 50
        0.000000
 51
       28.504297
  0
ARC
  8
0
 10
        2.199951
 20
       72.399780
 30
        0.000000
 40
        0.499980
 50
       31.959416
 51
      148.053932
  0
ARC
  8
0
 10
        5.699951
 20
       64.899780
 30
        0.000000
 40
        2.499978
 50
      331.494053
 51
      388.506884
  0
ARC
  8
0
 10
        5.699951
 20
       64.899780
 30
        0.000000
 40
        1.500010
 50
      328.045054
 51
      391.954966
  0
LINE
  8
0
 10
        8.349976
 20
       -6.400269
 30
        0.000000
 11
        4.650024
 21
       -6.400269
 31
        0.000000
  0
LINE
  8
0
 10
        8.349976
 20
       -3.400269
 30
        0.000000
 11
        4.650024
 21
       -3.400269
 31
        0.000000
  0
LINE
  8
0
 10
       -0.250000
 20
       -3.400269
 30
        0.000000
 11
       -3.950073
 21
       -3.400269
 31
        0.000000
  0
LINE
  8
0
 10
        3.199951
 20
       -5.400269
 30
        0.000000
 11
        1.199951
 21
       -5.400269
 31
        0.000000
  0
LINE
  8
0
 10
       -0.250000
 20
       -6.400269
 30
        0.000000
 11
       -3.950073
 21
       -6.400269
 31
        0.000000
  0
LINE
  8
0
 10
        0.199951
 20
       -6.900269
 30
        0.000000
 11
        0.199951
 21
       -5.400269
 31
        0.000000
  0
LINE
  8
0
 10
        4.199951
 20
       -6.900269
 30
        0.000000
 11
        4.199951
 21
       -5.400269
 31
        0.000000
  0
LINE
  8
0
 10
        1.199951
 20
       -6.900269
 30
        0.000000
 11
        1.199951
 21
       -5.400269
 31
        0.000000
  0
LINE
  8
0
 10
        3.199951
 20
       -6.900269
 30
        0.000000
 11
        3.199951
 21
       -5.400269
 31
        0.000000
  0
LINE
  8
0
 10
        4.650024
 20
       -5.400269
 30
        0.000000
 11
        4.199951
 21
       -5.400269
 31
        0.000000
  0
LINE
  8
0
 10
        4.650024
 20
       -4.400269
 30
        0.000000
 11
        4.199951
 21
       -4.400269
 31
        0.000000
  0
LINE
  8
0
 10
        0.199951
 20
       -5.400269
 30
        0.000000
 11
       -0.250000
 21
       -5.400269
 31
        0.000000
  0
LINE
  8
0
 10
        0.199951
 20
       -4.400269
 30
        0.000000
 11
       -0.250000
 21
       -4.400269
 31
        0.000000
  0
ARC
  8
0
 10
        0.199951
 20
       -5.400269
 30
        0.000000
 40
        1.000000
 50
        0.000000
 51
       90.000000
  0
ARC
  8
0
 10
        4.199951
 20
       -5.400269
 30
        0.000000
 40
        1.000000
 50
       90.000000
 51
      180.000015
  0
LINE
  8
0
 10
       -3.421143
 20
      -16.223389
 30
        0.000000
 11
        0.927368
 21
      -23.194214
 31
        0.000000
  0
LINE
  8
0
 10
        3.472656
 20
      -23.194214
 30
        0.000000
 11
        7.821167
 21
      -16.223389
 31
        0.000000
  0
LINE
  8
0
 10
       -3.496948
 20
      -13.707031
 30
        0.000000
 11
        0.199951
 21
       -6.900269
 31
        0.000000
  0
LINE
  8
0
 10
        7.896851
 20
      -13.707031
 30
        0.000000
 11
        4.199951
 21
       -6.900269
 31
        0.000000
  0
ARC
  8
0
 10
        2.199951
 20
      -22.400269
 30
        0.000000
 40
        1.499907
 50
      211.957444
 51
      328.045600
  0
LINE
  8
0
 10
        2.624268
 20
      -22.664917
 30
        0.000000
 11
        6.972656
 21
      -15.694214
 31
        0.000000
  0
LINE
  8
0
 10
        1.775757
 20
      -22.664917
 30
        0.000000
 11
       -2.572632
 21
      -15.694214
 31
        0.000000
  0
LINE
  8
0
 10
       -2.618164
 20
      -14.184326
 30
        0.000000
 11
        1.078735
 21
       -7.377563
 31
        0.000000
  0
LINE
  8
0
 10
        7.018188
 20
      -14.184326
 30
        0.000000
 11
        3.321167
 21
       -7.377563
 31
        0.000000
  0
ARC
  8
0
 10
        4.199951
 20
       -6.900269
 30
        0.000000
 40
        1.000000
 50
      180.000015
 51
      208.504168
  0
ARC
  8
0
 10
        0.199951
 20
       -6.900269
 30
        0.000000
 40
        1.000006
 50
      331.495392
 51
      360.000000
  0
ARC
  8
0
 10
        2.199951
 20
      -22.400269
 30
        0.000000
 40
        0.499947
 50
      211.953496
 51
      328.055600
  0
ARC
  8
0
 10
        5.699951
 20
      -14.900269
 30
        0.000000
 40
        1.500010
 50
      328.045054
 51
      391.956172
  0
ARC
  8
0
 10
        5.699951
 20
      -14.900269
 30
        0.000000
 40
        2.500085
 50
      331.495392
 51
      388.507236
  0
LINE
  8
0
 10
        8.500000
 20
       57.500000
 30
        0.000000
 11
        8.500000
 21
       51.499756
 31
        0.000000
  0
LINE
  8
0
 10
        8.500000
 20
       -1.500244
 30
        0.000000
 11
        8.500000
 21
       -7.500244
 31
        0.000000
  0
LINE
  8
0
 10
        8.500000
 20
       40.799683
 30
        0.000000
 11
        8.500000
 21
        9.199707
 31
        0.000000
  0
LINE
  8
0
 10
        8.500000
 20
        2.199707
 30
        0.000000
 11
        8.500000
 21
       -1.500244
 31
        0.000000
  0
CIRCLE
  8
0
 10
        2.199951
 20
       48.519756
 30
        0.000000
 40
        3.000000
  0
CIRCLE
  8
0
 10
        2.199951
 20
        1.479756
 30
        0.000000
 40
        3.000000
  0
LINE
  8
0
 10
       -2.796631
 20
      -15.000244
 30
        0.000000
 11
        7.196655
 21
      -15.000244
 31
        0.000000
  0
LINE
  8
0
 10
        8.197998
 20
      -15.000244
 30
        0.000000
 11
       12.000000
 21
      -15.000244
 31
        0.000000
  0
LINE
  8
0
 10
       -2.796631
 20
       65.000000
 30
        0.000000
 11
        7.196655
 21
       65.000000
 31
        0.000000
  0
LINE
  8
0
 10
        8.197998
 20
       65.000000
 30
        0.000000
 11
       12.000000
 21
       65.000000
 31
        0.000000
  0
LINE
  8
0
 10
        1.012207
 20
       -7.500244
 30
        0.000000
 11
        3.387817
 21
       -7.500244
 31
        0.000000
  0
LINE
  8
0
 10
        4.525879
 20
       -7.500244
 30
        0.000000
 11
       10.000000
 21
       -7.500244
 31
        0.000000
  0
LINE
  8
0
 10
        1.011963
 20
       57.500000
 30
        0.000000
 11
        3.388062
 21
       57.500000
 31
        0.000000
  0
LINE
  8
0
 10
        4.526001
 20
       57.500000
 30
        0.000000
 11
       10.000000
 21
       57.500000
 31
        0.000000
  0
CIRCLE
  8
0
 10
        2.000000
 20
      -37.500244
 30
        0.000000
 40
        5.950073
  0
CIRCLE
  8
0
 10
        2.000000
 20
      -37.500244
 30
        0.000000
 40
        7.000000
  0
CIRCLE
  8
0
 10
        2.000000
 20
      -37.500244
 30
        0.000000
 40
        4.750000
  0
CIRCLE
  8
0
 10
        2.000000
 20
      -37.500244
 30
        0.000000
 40
        3.750000
  0
CIRCLE
  8
0
 10
        2.000000
 20
      -60.500244
 30
        0.000000
 40
        5.950073
  0
CIRCLE
  8
0
 10
        2.000000
 20
      -60.500244
 30
        0.000000
 40
        7.000000
  0
CIRCLE
  8
0
 10
        2.000000
 20
      -60.500244
 30
        0.000000
 40
        4.750000
  0
CIRCLE
  8
0
 10
        2.000000
 20
      -60.500244
 30
        0.000000
 40
        3.750000
  0
LINE
  8
0
 10
       10.000000
 20
       57.500000
 30
        0.000000
 11
       10.000000
 21
       -7.500244
 31
        0.000000
  0
LINE
  8
0
 10
       -8.000000
 20
      -25.000244
 30
        0.000000
 11
       12.000000
 21
      -25.000244
 31
        0.000000
  0
LINE
  8
0
 10
       -6.000000
 20
       57.500000
 30
        0.000000
 11
       -0.125977
 21
       57.500000
 31
        0.000000
  0
LINE
  8
0
 10
       -6.000000
 20
       -7.500244
 30
        0.000000
 11
       -0.125854
 21
       -7.500244
 31
        0.000000
  0
LINE
  8
0
 10
       11.000000
 20
      -26.000244
 30
        0.000000
 11
       11.000000
 21
      -72.000244
 31
        0.000000
  0
LINE
  8
0
 10
       -7.000000
 20
      -26.000244
 30
        0.000000
 11
       11.000000
 21
      -26.000244
 31
        0.000000
  0
LINE
  8
0
 10
       -7.000000
 20
      -72.000244
 30
        0.000000
 11
       11.000000
 21
      -72.000244
 31
        0.000000
  0
LINE
  8
0
 10
        8.500000
 20
       51.499756
 30
        0.000000
 11
        8.500000
 21
       47.799683
 31
        0.000000
  0
LINE
  8
0
 10
        9.449951
 20
       40.799683
 30
        0.000000
 11
        7.199951
 21
       40.799683
 31
        0.000000
  0
LINE
  8
0
 10
        9.449951
 20
       47.799683
 30
        0.000000
 11
        8.349976
 21
       47.799683
 31
        0.000000
  0
LINE
  8
0
 10
        8.349976
 20
       56.399780
 30
        0.000000
 11
        8.349976
 21
       47.799683
 31
        0.000000
  0
LINE
  8
0
 10
        7.199951
 20
       43.299683
 30
        0.000000
 11
        7.199951
 21
       40.799683
 31
        0.000000
  0
LINE
  8
0
 10
        5.199951
 20
       45.299683
 30
        0.000000
 11
       -0.800049
 21
       45.299683
 31
        0.000000
  0
ARC
  8
0
 10
       -0.800049
 20
       43.299683
 30
        0.000000
 40
        2.000000
 50
       90.000000
 51
      180.000015
  0
ARC
  8
0
 10
        5.199951
 20
       43.299683
 30
        0.000000
 40
        2.000000
 50
        0.000000
 51
       90.000000
  0
LINE
  8
0
 10
        0.599976
 20
       54.483276
 30
        0.000000
 11
        0.599976
 21
       51.799683
 31
        0.000000
  0
LINE
  8
0
 10
        3.799927
 20
       54.483276
 30
        0.000000
 11
        3.799927
 21
       51.799683
 31
        0.000000
  0
LINE
  8
0
 10
        8.349976
 20
       53.399780
 30
        0.000000
 11
        4.650024
 21
       53.399780
 31
        0.000000
  0
LINE
  8
0
 10
       -0.250000
 20
       56.399780
 30
        0.000000
 11
       -0.250000
 21
       51.799683
 31
        0.000000
  0
LINE
  8
0
 10
        4.650024
 20
       56.399780
 30
        0.000000
 11
        4.650024
 21
       51.799683
 31
        0.000000
  0
LINE
  8
0
 10
       -0.250000
 20
       53.399780
 30
        0.000000
 11
       -3.950073
 21
       53.399780
 31
        0.000000
  0
LINE
  8
0
 10
        4.650024
 20
       51.799683
 30
        0.000000
 11
        3.799927
 21
       51.799683
 31
        0.000000
  0
LINE
  8
0
 10
        0.599976
 20
       51.799683
 30
        0.000000
 11
       -0.250000
 21
       51.799683
 31
        0.000000
  0
LINE
  8
0
 10
        4.650024
 20
       54.399780
 30
        0.000000
 11
        4.199951
 21
       54.399780
 31
        0.000000
  0
LINE
  8
0
 10
        0.199951
 20
       54.399780
 30
        0.000000
 11
       -0.250000
 21
       54.399780
 31
        0.000000
  0
ARC
  8
0
 10
        0.199951
 20
       55.399780
 30
        0.000000
 40
        1.000000
 50
      270.000000
 51
      360.000000
  0
ARC
  8
0
 10
        4.199951
 20
       55.399780
 30
        0.000000
 40
        1.000000
 50
      180.000015
 51
      270.000000
  0
LINE
  8
0
 10
        9.449951
 20
        9.199707
 30
        0.000000
 11
        7.199951
 21
        9.199707
 31
        0.000000
  0
LINE
  8
0
 10
        9.449951
 20
        2.199707
 30
        0.000000
 11
        8.349976
 21
        2.199707
 31
        0.000000
  0
LINE
  8
0
 10
        8.349976
 20
       -6.400269
 30
        0.000000
 11
        8.349976
 21
        2.199707
 31
        0.000000
  0
LINE
  8
0
 10
        7.199951
 20
        6.699707
 30
        0.000000
 11
        7.199951
 21
        9.199707
 31
        0.000000
  0
LINE
  8
0
 10
        5.199951
 20
        4.699707
 30
        0.000000
 11
       -0.800049
 21
        4.699707
 31
        0.000000
  0
ARC
  8
0
 10
       -0.800049
 20
        6.699707
 30
        0.000000
 40
        2.000000
 50
      180.000015
 51
      270.000000
  0
ARC
  8
0
 10
        5.199951
 20
        6.699707
 30
        0.000000
 40
        2.000000
 50
      270.000000
 51
      360.000000
  0
LINE
  8
0
 10
        0.599976
 20
       -4.483764
 30
        0.000000
 11
        0.599976
 21
       -1.800293
 31
        0.000000
  0
LINE
  8
0
 10
        3.799927
 20
       -4.483764
 30
        0.000000
 11
        3.799927
 21
       -1.800293
 31
        0.000000
  0
LINE
  8
0
 10
       -0.250000
 20
       -6.400269
 30
        0.000000
 11
       -0.250000
 21
       -1.800293
 31
        0.000000
  0
LINE
  8
0
 10
        4.650024
 20
       -6.400269
 30
        0.000000
 11
        4.650024
 21
       -1.800293
 31
        0.000000
  0
LINE
  8
0
 10
        4.650024
 20
       -1.800293
 30
        0.000000
 11
        3.799927
 21
       -1.800293
 31
        0.000000
  0
LINE
  8
0
 10
        0.599976
 20
       -1.800293
 30
        0.000000
 11
       -0.250000
 21
       -1.800293
 31
        0.000000
  0
LINE
  8
0
 10
       -1.709961
 20
       42.549683
 30
        0.000000
 11
       -1.709961
 21
        7.449707
 31
        0.000000
  0
ARC
  8
0
 10
       -1.300049
 20
       64.899780
 30
        0.000000
 40
        2.500007
 50
      151.492809
 51
      208.507201
  0
ARC
  8
0
 10
       -1.300049
 20
       64.899780
 30
        0.000000
 40
        1.500043
 50
      148.043044
 51
      211.959930
  0
ARC
  8
0
 10
       -1.300049
 20
      -14.900269
 30
        0.000000
 40
        2.500007
 50
      151.492809
 51
      208.506327
  0
ARC
  8
0
 10
       -1.300049
 20
      -14.900269
 30
        0.000000
 40
        1.500043
 50
      148.043044
 51
      211.955750
  0
LINE
  8
0
 10
       -4.099976
 20
       40.799683
 30
        0.000000
 11
       -4.099976
 21
        9.199707
 31
        0.000000
  0
LINE
  8
0
 10
       -4.099976
 20
        2.199707
 30
        0.000000
 11
       -4.099976
 21
       -1.500244
 31
        0.000000
  0
LINE
  8
0
 10
       -6.000000
 20
       57.500000
 30
        0.000000
 11
       -6.000000
 21
       -7.500244
 31
        0.000000
  0
LINE
  8
0
 10
       12.000000
 20
       75.000000
 30
        0.000000
 11
       12.000000
 21
      -25.000244
 31
        0.000000
  0
LINE
  8
0
 10
       -8.000000
 20
       75.000000
 30
        0.000000
 11
       -8.000000
 21
      -25.000244
 31
        0.000000
  0
LINE
  8
0
 10
       -8.000000
 20
       65.000000
 30
        0.000000
 11
       -3.797974
 21
       65.000000
 31
        0.000000
  0
LINE
  8
0
 10
       -8.000000
 20
      -15.000244
 30
        0.000000
 11
       -3.797974
 21
      -15.000244
 31
        0.000000
  0
LINE
  8
0
 10
       -7.000000
 20
      -26.000244
 30
        0.000000
 11
       -7.000000
 21
      -72.000244
 31
        0.000000
  0
LINE
  8
0
 10
       -4.099976
 20
       51.499756
 30
        0.000000
 11
       -4.099976
 21
       47.799683
 31
        0.000000
  0
LINE
  8
0
 10
       -5.050049
 20
       47.799683
 30
        0.000000
 11
       -5.050049
 21
       40.799683
 31
        0.000000
  0
LINE
  8
0
 10
       -3.950073
 20
       56.399780
 30
        0.000000
 11
       -3.950073
 21
       47.799683
 31
        0.000000
  0
LINE
  8
0
 10
       -3.950073
 20
       47.799683
 30
        0.000000
 11
       -5.050049
 21
       47.799683
 31
        0.000000
  0
LINE
  8
0
 10
       -2.800049
 20
       43.299683
 30
        0.000000
 11
       -2.800049
 21
       40.799683
 31
        0.000000
  0
LINE
  8
0
 10
       -2.800049
 20
       40.799683
 30
        0.000000
 11
       -5.050049
 21
       40.799683
 31
        0.000000
  0
LINE
  8
0
 10
       -5.050049
 20
        2.199707
 30
        0.000000
 11
       -5.050049
 21
        9.199707
 31
        0.000000
  0
LINE
  8
0
 10
       -3.950073
 20
       -6.400269
 30
        0.000000
 11
       -3.950073
 21
        2.199707
 31
        0.000000
  0
LINE
  8
0
 10
       -3.950073
 20
        2.199707
 30
        0.000000
 11
       -5.050049
 21
        2.199707
 31
        0.000000
  0
LINE
  8
0
 10
       -2.800049
 20
        6.699707
 30
        0.000000
 11
       -2.800049
 21
        9.199707
 31
        0.000000
  0
LINE
  8
0
 10
       -2.800049
 20
        9.199707
 30
        0.000000
 11
       -5.050049
 21
        9.199707
 31
        0.000000
  0
CIRCLE
  8
0
 10
       -3.500000
 20
      110.999756
 30
        0.000000
 40
        1.000000
  0
CIRCLE
  8
0
 10
       -3.500000
 20
       89.999756
 30
        0.000000
 40
        1.000000
  0
CIRCLE
  8
0
 10
       -3.500000
 20
      107.999756
 30
        0.000000
 40
        1.000000
  0
CIRCLE
  8
0
 10
       -3.500000
 20
      104.999756
 30
        0.000000
 40
        1.000000
  0
CIRCLE
  8
0
 10
       -3.500000
 20
      101.999756
 30
        0.000000
 40
        1.000000
  0
CIRCLE
  8
0
 10
       -3.500000
 20
       98.999756
 30
        0.000000
 40
        1.000000
  0
CIRCLE
  8
0
 10
       -3.500000
 20
       95.999756
 30
        0.000000
 40
        1.000000
  0
CIRCLE
  8
0
 10
       -3.500000
 20
       92.999756
 30
        0.000000
 40
        1.000000
  0
CIRCLE
  8
0
 10
        1.500000
 20
      110.999756
 30
        0.000000
 40
        1.000000
  0
CIRCLE
  8
0
 10
        1.500000
 20
       89.999756
 30
        0.000000
 40
        1.000000
  0
CIRCLE
  8
0
 10
        1.500000
 20
      107.999756
 30
        0.000000
 40
        1.000000
  0
LINE
  8
0
 10
      -16.750000
 20
      125.000000
 30
        0.000000
 11
      -16.750000
 21
     -125.000000
 31
        0.000000
  0
LINE
  8
0
  6
CENTER
 10
       30.000000
 20
        0.000000
 30
        0.000000
 11
      -30.000000
 21
        0.000000
 31
        0.000000
  0
LINE
  8
0
  6
CENTER
 10
        0.000000
 20
      135.705527
 30
        0.000000
 11
        0.000000
 21
     -135.069355
 31
        0.000000
  0
LINE
  8
0
 10
      105.000000
 20
      125.000000
 30
        0.000000
 11
       75.491699
 21
      124.485107
 31
        0.000000
  0
ARC
  8
0
 10
       70.500000
 20
       69.500000
 30
        0.000000
 40
        0.500000
 50
       90.000000
 51
      180.000015
  0
LINE
  8
0
 10
       70.500000
 20
       70.000000
 30
        0.000000
 11
       72.000000
 21
       70.000000
 31
        0.000000
  0
LINE
  8
0
 10
       72.000000
 20
       75.000000
 30
        0.000000
 11
       72.000000
 21
       70.000000
 31
        0.000000
  0
LINE
  8
0
 10
       70.000000
 20
       75.000000
 30
        0.000000
 11
       70.000000
 21
      124.399963
 31
        0.000000
  0
LINE
  8
0
 10
       70.000000
 20
      124.399963
 30
        0.000000
 11
       75.000000
 21
      124.399963
 31
        0.000000
  0
LINE
  8
0
 10
      162.000200
 20
     -125.000000
 30
        0.000000
 11
      105.000000
 21
     -125.000000
 31
        0.000000
  0
LINE
  8
0
 10
      174.999956
 20
     -123.500000
 30
        0.000000
 11
      162.000200
 21
     -123.500000
 31
        0.000000
  0
LINE
  8
0
 10
      165.000200
 20
     -123.500000
 30
        0.000000
 11
      165.000200
 21
     -125.000000
 31
        0.000000
  0
LINE
  8
0
 10
      172.499956
 20
     -125.000000
 30
        0.000000
 11
      165.000200
 21
     -125.000000
 31
        0.000000
  0
LINE
  8
0
 10
      174.999956
 20
       -5.500000
 30
        0.000000
 11
      174.999956
 21
     -123.500000
 31
        0.000000
  0
LINE
  8
0
 10
      162.000200
 20
      125.000244
 30
        0.000000
 11
      105.000000
 21
      125.000244
 31
        0.000000
  0
LINE
  8
0
 10
      174.999956
 20
      123.500244
 30
        0.000000
 11
      174.999956
 21
       81.500244
 31
        0.000000
  0
LINE
  8
0
 10
      174.999956
 20
       81.500244
 30
        0.000000
 11
      172.499956
 21
       81.500244
 31
        0.000000
  0
LINE
  8
0
 10
      165.000200
 20
      125.000244
 30
        0.000000
 11
      165.000200
 21
      123.500244
 31
        0.000000
  0
LINE
  8
0
 10
      114.499268
 20
       12.500000
 30
        0.000000
 11
      164.499268
 21
       12.500000
 31
        0.000000
  0
LINE
  8
0
 10
      111.000000
 20
      -56.500000
 30
        0.000000
 11
      108.000000
 21
      -56.500000
 31
        0.000000
  0
LINE
  8
0
 10
      108.000000
 20
       56.500244
 30
        0.000000
 11
      108.000000
 21
       43.500244
 31
        0.000000
  0
LINE
  8
0
 10
      104.999956
 20
      145.000244
 30
        0.000000
 11
      104.999956
 21
      178.500244
 31
        0.000000
  0
LINE
  8
0
 10
      174.999956
 20
      145.000244
 30
        0.000000
 11
      174.999956
 21
      178.500244
 31
        0.000000
  0
LINE
  8
0
 10
       69.999956
 20
      145.611171
 30
        0.000000
 11
       69.999956
 21
      177.889317
 31
        0.000000
  0
LINE
  8
0
 10
       75.000001
 20
      145.523895
 30
        0.000000
 11
       75.000001
 21
      177.976593
 31
        0.000000
  0
LINE
  8
0
 10
      107.999712
 20
      145.000244
 30
        0.000000
 11
      107.999712
 21
      178.500244
 31
        0.000000
  0
LINE
  8
0
 10
      110.999712
 20
      145.000244
 30
        0.000000
 11
      110.999712
 21
      178.500244
 31
        0.000000
  0
LINE
  8
0
 10
      113.999712
 20
      145.000244
 30
        0.000000
 11
      113.999712
 21
      178.500244
 31
        0.000000
  0
LINE
  8
0
 10
      116.999956
 20
      145.000244
 30
        0.000000
 11
      116.999956
 21
      178.500244
 31
        0.000000
  0
LINE
  8
0
 10
      119.999956
 20
      145.000244
 30
        0.000000
 11
      119.999956
 21
      178.500244
 31
        0.000000
  0
LINE
  8
0
 10
      122.999956
 20
      145.000244
 30
        0.000000
 11
      122.999956
 21
      178.500244
 31
        0.000000
  0
LINE
  8
0
 10
      125.999956
 20
      145.000244
 30
        0.000000
 11
      125.999956
 21
      178.500244
 31
        0.000000
  0
LINE
  8
0
 10
      128.999956
 20
      145.000244
 30
        0.000000
 11
      128.999956
 21
      178.500244
 31
        0.000000
  0
LINE
  8
0
 10
      131.999956
 20
      145.000244
 30
        0.000000
 11
      131.999956
 21
      178.500244
 31
        0.000000
  0
LINE
  8
0
 10
      134.999956
 20
      145.000244
 30
        0.000000
 11
      134.999956
 21
      178.500244
 31
        0.000000
  0
LINE
  8
0
 10
      137.999956
 20
      145.000244
 30
        0.000000
 11
      137.999956
 21
      178.500244
 31
        0.000000
  0
LINE
  8
0
 10
      140.999956
 20
      145.000244
 30
        0.000000
 11
      140.999956
 21
      178.500244
 31
        0.000000
  0
LINE
  8
0
 10
      143.999956
 20
      145.000244
 30
        0.000000
 11
      143.999956
 21
      178.500244
 31
        0.000000
  0
LINE
  8
0
 10
      149.999956
 20
      145.000244
 30
        0.000000
 11
      149.999956
 21
      178.500244
 31
        0.000000
  0
LINE
  8
0
 10
      152.999956
 20
      145.000244
 30
        0.000000
 11
      152.999956
 21
      178.500244
 31
        0.000000
  0
LINE
  8
0
 10
      155.999956
 20
      145.000244
 30
        0.000000
 11
      155.999956
 21
      178.500244
 31
        0.000000
  0
LINE
  8
0
 10
      161.999956
 20
      145.000244
 30
        0.000000
 11
      161.999956
 21
      178.500244
 31
        0.000000
  0
LINE
  8
0
 10
      172.499956
 20
      158.000244
 30
        0.000000
 11
      164.999956
 21
      158.000244
 31
        0.000000
  0
LINE
  8
0
 10
      174.999956
 20
      145.000244
 30
        0.000000
 11
      104.999956
 21
      145.000244
 31
        0.000000
  0
LINE
  8
0
 10
      174.999956
 20
      178.500244
 30
        0.000000
 11
      104.999956
 21
      178.500244
 31
        0.000000
  0
LINE
  8
0
 10
      164.999956
 20
      145.000244
 30
        0.000000
 11
      164.999956
 21
      178.500244
 31
        0.000000
  0
LINE
  8
0
 10
      172.499956
 20
      158.000244
 30
        0.000000
 11
      172.499956
 21
      165.500244
 31
        0.000000
  0
LINE
  8
0
 10
      158.999956
 20
      145.000244
 30
        0.000000
 11
      158.999956
 21
      178.500244
 31
        0.000000
  0
LINE
  8
0
 10
      146.999956
 20
      145.000244
 30
        0.000000
 11
      146.999956
 21
      178.500244
 31
        0.000000
  0
LINE
  8
0
 10
      104.999956
 20
      178.500244
 30
        0.000000
 11
       69.999956
 21
      177.889317
 31
        0.000000
  0
LINE
  8
0
 10
      104.999956
 20
      145.000244
 30
        0.000000
 11
       69.999956
 21
      145.611171
 31
        0.000000
  0
LINE
  8
0
 10
      111.000000
 20
       56.500244
 30
        0.000000
 11
      111.000000
 21
       43.500244
 31
        0.000000
  0
LINE
  8
0
 10
      111.000000
 20
       56.500244
 30
        0.000000
 11
      108.000000
 21
       56.500244
 31
        0.000000
  0
LINE
  8
0
 10
      111.000000
 20
       43.500244
 30
        0.000000
 11
      108.000000
 21
       43.500244
 31
        0.000000
  0
LINE
  8
0
 10
      111.000000
 20
      -43.500000
 30
        0.000000
 11
      108.000000
 21
      -43.500000
 31
        0.000000
  0
LINE
  8
0
 10
      108.000000
 20
      -43.500000
 30
        0.000000
 11
      108.000000
 21
      -56.500000
 31
        0.000000
  0
LINE
  8
0
 10
      111.000000
 20
      -43.500000
 30
        0.000000
 11
      111.000000
 21
      -56.500000
 31
        0.000000
  0
LINE
  8
0
 10
      105.000000
 20
      125.000244
 30
        0.000000
 11
      105.000000
 21
     -125.000000
 31
        0.000000
  0
LINE
  8
0
 10
      164.499268
 20
       12.500000
 30
        0.000000
 11
      164.499268
 21
      -12.500000
 31
        0.000000
  0
LINE
  8
0
 10
      164.499268
 20
      -12.500000
 30
        0.000000
 11
      114.499268
 21
      -12.500000
 31
        0.000000
  0
LINE
  8
0
 10
      114.499268
 20
      -12.500000
 30
        0.000000
 11
      114.499268
 21
       12.500000
 31
        0.000000
  0
LINE
  8
0
 10
      162.000200
 20
      123.500244
 30
        0.000000
 11
      162.000200
 21
      125.000244
 31
        0.000000
  0
LINE
  8
0
 10
      172.499956
 20
      125.000244
 30
        0.000000
 11
      172.499956
 21
      123.500244
 31
        0.000000
  0
LINE
  8
0
 10
      174.999956
 20
      123.500244
 30
        0.000000
 11
      162.000200
 21
      123.500244
 31
        0.000000
  0
LINE
  8
0
 10
      172.499956
 20
       81.500244
 30
        0.000000
 11
      172.499956
 21
       -5.500000
 31
        0.000000
  0
LINE
  8
0
 10
      172.499956
 20
      125.000244
 30
        0.000000
 11
      165.000200
 21
      125.000244
 31
        0.000000
  0
LINE
  8
0
 10
      172.499956
 20
       -5.500000
 30
        0.000000
 11
      174.999956
 21
       -5.500000
 31
        0.000000
  0
LINE
  8
0
 10
      162.000200
 20
     -123.500000
 30
        0.000000
 11
      162.000200
 21
     -125.000000
 31
        0.000000
  0
LINE
  8
0
 10
      172.499956
 20
     -123.500000
 30
        0.000000
 11
      172.499956
 21
     -125.000000
 31
        0.000000
  0
LINE
  8
0
 10
       75.000000
 20
       75.000000
 30
        0.000000
 11
       75.000000
 21
      123.985107
 31
        0.000000
  0
LINE
  8
0
 10
       70.000000
 20
       75.000000
 30
        0.000000
 11
       75.000000
 21
       75.000000
 31
        0.000000
  0
LINE
  8
0
 10
       70.000000
 20
       69.500000
 30
        0.000000
 11
       70.000000
 21
     -124.388916
 31
        0.000000
  0
LINE
  8
0
 10
      105.000000
 20
     -125.000000
 30
        0.000000
 11
       70.000000
 21
     -124.388916
 31
        0.000000
  0
ARC
  8
0
 10
       75.500000
 20
      123.985107
 30
        0.000000
 40
        0.499955
 50
       91.007286
 51
      180.000015
  0
ENDSEC
  0
EOF
