  0
SECTION
  2
HEADER
  9
$ACADVER
  1
AC1006
  9
$INSBASE
 10
0.0
 20
0.0
 30
0.0
  9
$EXTMIN
 10
      -76.378174
 20
      -46.719467
  9
$EXTMAX
 10
      104.000000
 20
       78.999985
  9
$LIMMIN
 10
      -76.378174
 20
      -46.719467
  9
$LIMMAX
 10
      104.000000
 20
       78.999985
  9
$VIEWCTR
 10
       13.810913
 20
       13.810913
  9
$ORTHOMODE
 70
     0
  9
$ANGBASE
 50
0.0
  9
$ANGDIR
 70
     0
  9
$SPLINETYPE
 70
     6
  9
$SPLINESEGS
 70
     8
9
$DIMASZ
 40
        6.000000
9
$DIMEXE
 40
        1.500000
9
$DIMEXO
 40
        2.500000
9
$DIMTXT
 40
        5.000000
9
$DIMGAP
 40
        1.500000
9
$DIMTAD
 70
1
9
$DIMTIH
 70
0
9
$DIMTOH
 70
0
  0
ENDSEC
  0
SECTION
  2
TABLES
  0
TABLE
  2
LTYPE
 70
     5
  0
LTYPE
  2
CONTINUOUS
 70
    64
  3
SOLID LINE
 72
    65
 73
     0
 40
0.0
  0
LTYPE
  2
DASHED
 70
    64
  3
-- -- -- -- -- --
 72
    65
 73
     2
 40
  0.75  
 49
  0.50  
 49
 -0.25  
  0
LTYPE
  2
DOT
 70
    64
  3
....................
 72
    65
 73
     2
 40
  0.25  
 49
  0.02  
 49
 -0.23  
  0
LTYPE
  2
CENTER
 70
    64
  3
-- . -- . -- . -- .
 72
    65
 73
    4
 40
  2.00  
 49
  1.25  
 49
 -0.25  
 49
  0.25  
 49
 -0.25  
  0
LTYPE
  2
PHANTOM
 70
    64
  3
-- .. -- .. -- ..
 72
    65
 73
    6
 40
  2.50  
 49
  1.25  
 49
 -0.25  
 49
  0.25  
 49
 -0.25  
 49
  0.25  
 49
 -0.25  
  0
ENDTAB
  0
TABLE
  2
LAYER
 70
     1
  0
LAYER
  2
0
 70
    64
 62
     3
  6
CONTINUOUS
  0
ENDTAB
  0
TABLE
  2
STYLE
 70
     2
  0
STYLE
  2
STANDARD
 70
    64
 40
0.0
 41
1.0
 50
0.0
 71
     0
 42
5.0
  3
ROMANS
  4
BIGFONT
  0
STYLE
  2
BIGFONT
 70
    64
 40
0.0
 41
1.0
 50
0.0
 71
     0
 42
5.0
  3
ROMANS
  4
BIGFONT
  0
ENDTAB
  0
TABLE
  2
VIEW
 70
     0
  0
ENDTAB
  0
TABLE
  2
UCS
 70
     0
  0
ENDTAB
  0
TABLE
  2
DWGMGR
 70
     0
  0
ENDTAB
  0
ENDSEC
  0
SECTION
  2
BLOCKS
  0
BLOCK
  8
0
  2
BLK0001
 70
    64
 10
        0.000000
 20
        0.000000
  0
ARC
  8
0
 10
       37.575191
 20
       28.845966
 30
        0.000000
 40
        2.875290
 50
      163.199195
 51
      174.696823
  0
ARC
  8
0
 10
       45.525329
 20
       27.404376
 30
        0.000000
 40
       10.947082
 50
      171.027336
 51
      175.342344
  0
ARC
  8
0
 10
       59.382692
 20
       25.837219
 30
        0.000000
 40
       24.889771
 50
      174.336929
 51
      176.728368
  0
ARC
  8
0
 10
       76.939597
 20
       24.528748
 30
        0.000000
 40
       42.493826
 50
      176.317970
 51
      177.948122
  0
ARC
  8
0
 10
       94.005914
 20
       23.709003
 30
        0.000000
 40
       59.578915
 50
      177.747927
 51
      179.024005
  0
ARC
  8
0
 10
      105.886684
 20
       23.378971
 30
        0.000000
 40
       71.463697
 50
      178.921691
 51
      180.033918
  0
ENDBLK
  0
BLOCK
  8
0
  2
BLK0002
 70
    64
 10
        0.000000
 20
        0.000000
  0
ARC
  8
0
 10
     -109.133687
 20
       23.349354
 30
        0.000000
 40
       74.710659
 50
      359.990274
 51
      361.054134
  0
ARC
  8
0
 10
     -102.779301
 20
       23.461782
 30
        0.000000
 40
       68.355279
 50
        1.057900
 51
        2.170117
  0
ARC
  8
0
 10
      -88.715230
 20
       23.939041
 30
        0.000000
 40
       54.283252
 50
        2.228848
 51
        3.504927
  0
ARC
  8
0
 10
      -70.971114
 20
       24.931832
 30
        0.000000
 40
       36.511752
 50
        3.652186
 51
        5.282338
  0
ARC
  8
0
 10
      -54.270690
 20
       26.359211
 30
        0.000000
 40
       19.751184
 50
        5.619379
 51
        8.010589
  0
ARC
  8
0
 10
      -42.271591
 20
       27.928701
 30
        0.000000
 40
        7.651360
 50
        8.894035
 51
       13.208584
  0
ENDBLK
  0
BLOCK
  8
0
  2
BLK0003
 70
    64
 10
        0.000000
 20
        0.000000
  0
ARC
  8
0
 10
      -37.575810
 20
      -28.845823
 30
        0.000000
 40
        2.875892
 50
      343.200981
 51
      354.696552
  0
ARC
  8
0
 10
      -45.526559
 20
      -27.404188
 30
        0.000000
 40
       10.948294
 50
      351.027741
 51
      355.342291
  0
ARC
  8
0
 10
      -59.384927
 20
      -25.837030
 30
        0.000000
 40
       24.891984
 50
      354.337184
 51
      356.728394
  0
ARC
  8
0
 10
      -76.939027
 20
      -24.528791
 30
        0.000000
 40
       42.493224
 50
      356.318077
 51
      357.948229
  0
ARC
  8
0
 10
      -94.004911
 20
      -23.709005
 30
        0.000000
 40
       59.577881
 50
      357.747947
 51
      359.024025
  0
ARC
  8
0
 10
     -105.885324
 20
      -23.378953
 30
        0.000000
 40
       71.462306
 50
      358.921686
 51
      360.033903
  0
ENDBLK
  0
BLOCK
  8
0
  2
BLK0004
 70
    64
 10
        0.000000
 20
        0.000000
  0
ARC
  8
0
 10
      109.134842
 20
      -23.349361
 30
        0.000000
 40
       74.711843
 50
      179.990261
 51
      181.054131
  0
ARC
  8
0
 10
      102.780250
 20
      -23.461758
 30
        0.000000
 40
       68.356259
 50
      181.057925
 51
      182.170142
  0
ARC
  8
0
 10
       88.715786
 20
      -23.938994
 30
        0.000000
 40
       54.283839
 50
      182.228917
 51
      183.504996
  0
ARC
  8
0
 10
       70.971299
 20
      -24.931815
 30
        0.000000
 40
       36.511968
 50
      183.652275
 51
      185.282427
  0
ARC
  8
0
 10
       54.268667
 20
      -26.359441
 30
        0.000000
 40
       19.749179
 50
      185.619449
 51
      188.010888
  0
ARC
  8
0
 10
       42.270600
 20
      -27.928848
 30
        0.000000
 40
        7.650389
 50
      188.894449
 51
      193.209457
  0
ENDBLK
  0
BLOCK
  8
0
  2
BLK0005
 70
    64
 10
        0.000000
 20
        0.000000
  0
TEXT
  8
0
 62
  2
 10
       58.846458
 20
       -2.464284
 30
        0.000000
 40
        2.505000
  1
６０
 50
       90.000000
 41
        1.000000
 51
        0.000000
  7
BIGFONT
  0
LINE
  8
0
 62
  2
 10
       41.000000
 20
      -29.999998
 30
        0.000000
 11
       60.246460
 21
      -29.999998
 31
        0.000000
  0
LINE
  8
0
 62
  2
 10
       41.000000
 20
       30.000002
 30
        0.000000
 11
       60.246460
 21
       30.000002
 31
        0.000000
  0
LINE
  8
0
 62
  2
 10
       59.075222
 20
      -26.999998
 30
        0.000000
 11
       59.546459
 21
      -29.999998
 31
        0.000000
  0
LINE
  8
0
 62
  2
 10
       59.546459
 20
      -29.999998
 30
        0.000000
 11
       60.017696
 21
      -26.999998
 31
        0.000000
  0
LINE
  8
0
 62
  2
 10
       60.017696
 20
       27.000002
 30
        0.000000
 11
       59.546459
 21
       30.000002
 31
        0.000000
  0
LINE
  8
0
 62
  2
 10
       59.546459
 20
       30.000002
 30
        0.000000
 11
       59.075222
 21
       27.000002
 31
        0.000000
  0
LINE
  8
0
 62
  2
 10
       59.546459
 20
      -29.999998
 30
        0.000000
 11
       59.546459
 21
       30.000002
 31
        0.000000
  0
ENDBLK
  0
BLOCK
  8
0
  2
BLK0006
 70
    64
 10
        0.000000
 20
        0.000000
  0
TEXT
  8
0
 62
  2
 10
       92.035713
 20
      -45.319466
 30
        0.000000
 40
        2.505000
  1
２０
 50
        0.000000
 41
        1.000000
 51
        0.000000
  7
BIGFONT
  0
LINE
  8
0
 62
  2
 10
      104.000000
 20
       -5.499998
 30
        0.000000
 11
      104.000000
 21
      -46.719463
 31
        0.000000
  0
LINE
  8
0
 62
  2
 10
       85.000000
 20
      -24.336664
 30
        0.000000
 11
       85.000000
 21
      -46.719467
 31
        0.000000
  0
LINE
  8
0
 62
  2
 10
      101.000000
 20
      -46.490704
 30
        0.000000
 11
      104.000000
 21
      -46.019463
 31
        0.000000
  0
LINE
  8
0
 62
  2
 10
      104.000000
 20
      -46.019463
 30
        0.000000
 11
      101.000000
 21
      -45.548225
 31
        0.000000
  0
LINE
  8
0
 62
  2
 10
       88.000000
 20
      -45.548225
 30
        0.000000
 11
       85.000000
 21
      -46.019466
 31
        0.000000
  0
LINE
  8
0
 62
  2
 10
       85.000000
 20
      -46.019466
 30
        0.000000
 11
       88.000000
 21
      -46.490704
 31
        0.000000
  0
LINE
  8
0
 62
  2
 10
      104.000000
 20
      -46.019463
 30
        0.000000
 11
       85.000000
 21
      -46.019466
 31
        0.000000
  0
ENDBLK
  0
BLOCK
  8
0
  2
BLK0007
 70
    64
 10
        0.000000
 20
        0.000000
  0
TEXT
  8
0
 62
  2
 10
       -2.464279
 20
      -45.319466
 30
        0.000000
 40
        2.505000
  1
９０
 50
        0.000000
 41
        1.000000
 51
        0.000000
  7
BIGFONT
  0
LINE
  8
0
 62
  2
 10
       45.000000
 20
      -25.999998
 30
        0.000000
 11
       45.000000
 21
      -46.719467
 31
        0.000000
  0
LINE
  8
0
 62
  2
 10
      -45.000000
 20
      -25.999998
 30
        0.000000
 11
      -45.000000
 21
      -46.719467
 31
        0.000000
  0
LINE
  8
0
 62
  2
 10
       42.000000
 20
      -46.490704
 30
        0.000000
 11
       45.000000
 21
      -46.019466
 31
        0.000000
  0
LINE
  8
0
 62
  2
 10
       45.000000
 20
      -46.019466
 30
        0.000000
 11
       42.000000
 21
      -45.548229
 31
        0.000000
  0
LINE
  8
0
 62
  2
 10
      -42.000000
 20
      -45.548229
 30
        0.000000
 11
      -45.000000
 21
      -46.019466
 31
        0.000000
  0
LINE
  8
0
 62
  2
 10
      -45.000000
 20
      -46.019466
 30
        0.000000
 11
      -42.000000
 21
      -46.490704
 31
        0.000000
  0
LINE
  8
0
 62
  2
 10
       45.000000
 20
      -46.019466
 30
        0.000000
 11
      -45.000000
 21
      -46.019466
 31
        0.000000
  0
ENDBLK
  0
BLOCK
  8
0
  2
BLK0008
 70
    64
 10
        0.000000
 20
        0.000000
  0
TEXT
  8
0
 62
  2
 10
       -2.464279
 20
      -38.589455
 30
        0.000000
 40
        2.505000
  1
８０
 50
        0.000000
 41
        1.000000
 51
        0.000000
  7
BIGFONT
  0
LINE
  8
0
 62
  2
 10
      -40.000000
 20
       -3.989982
 30
        0.000000
 11
      -40.000000
 21
      -39.989452
 31
        0.000000
  0
LINE
  8
0
 62
  2
 10
       40.000000
 20
       -3.989982
 30
        0.000000
 11
       40.000000
 21
      -39.989452
 31
        0.000000
  0
LINE
  8
0
 62
  2
 10
      -37.000000
 20
      -38.818214
 30
        0.000000
 11
      -40.000000
 21
      -39.289452
 31
        0.000000
  0
LINE
  8
0
 62
  2
 10
      -40.000000
 20
      -39.289452
 30
        0.000000
 11
      -37.000000
 21
      -39.760689
 31
        0.000000
  0
LINE
  8
0
 62
  2
 10
       37.000000
 20
      -39.760689
 30
        0.000000
 11
       40.000000
 21
      -39.289452
 31
        0.000000
  0
LINE
  8
0
 62
  2
 10
       40.000000
 20
      -39.289452
 30
        0.000000
 11
       37.000000
 21
      -38.818214
 31
        0.000000
  0
LINE
  8
0
 62
  2
 10
      -40.000000
 20
      -39.289452
 30
        0.000000
 11
       40.000000
 21
      -39.289452
 31
        0.000000
  0
ENDBLK
  0
ENDSEC
  0
SECTION
  2
ENTITIES
  0
ARC
  8
0
 10
      -33.474548
 20
       60.999985
 30
        0.000000
 40
        0.999997
 50
      183.000121
 51
      270.000000
  0
ARC
  8
0
 10
        0.000000
 20
       60.199982
 30
        0.000000
 40
        1.300003
 50
        0.000000
 51
      180.000015
  0
LINE
  8
0
 10
       -1.300003
 20
       59.999985
 30
        0.000000
 11
       -1.300003
 21
       60.199982
 31
        0.000000
  0
LINE
  8
0
 10
        1.300003
 20
       59.999985
 30
        0.000000
 11
        1.300003
 21
       60.199982
 31
        0.000000
  0
TEXT
  8
0
 62
  2
 10
      -76.378173
 20
       74.499683
 30
        0.000000
 40
        3.340000
  1
ＤＳ８ＰＫ
 50
        0.000000
 41
        1.000000
 51
        0.000000
  7
BIGFONT
  0
LINE
  8
0
 10
      -35.500000
 20
       78.999985
 30
        0.000000
 11
      -35.500000
 21
       78.499985
 31
        0.000000
  0
INSERT
  8
0
 62
  2
  2
BLK0001
 10
        0.000000
 20
        0.000000
  0
INSERT
  8
0
 62
  2
  2
BLK0002
 10
        0.000000
 20
        0.000000
  0
INSERT
  8
0
 62
  2
  2
BLK0003
 10
        0.000000
 20
        0.000000
  0
INSERT
  8
0
 62
  2
  2
BLK0004
 10
        0.000000
 20
        0.000000
  0
INSERT
  8
0
 62
  5
  2
BLK0005
 10
        0.000000
 20
        0.000000
  0
INSERT
  8
0
 62
  5
  2
BLK0006
 10
        0.000000
 20
        0.000000
  0
INSERT
  8
0
 62
  5
  2
BLK0007
 10
        0.000000
 20
        0.000000
  0
INSERT
  8
0
 62
  5
  2
BLK0008
 10
        0.000000
 20
        0.000000
  0
ARC
  8
0
 10
       97.000000
 20
       28.710388
 30
        0.000000
 40
        0.999999
 50
       93.000089
 51
      180.000015
  0
ARC
  8
0
 10
       97.000000
 20
      -28.710382
 30
        0.000000
 40
        1.000000
 50
      180.000015
 51
      266.999914
  0
LINE
  8
0
 10
       96.000000
 20
      -28.857157
 30
        0.000000
 11
       96.000000
 21
       28.857130
 31
        0.000000
  0
ARC
  8
0
 10
       91.000000
 20
       23.336670
 30
        0.000000
 40
        6.000000
 50
       92.999946
 51
      180.000015
  0
LINE
  8
0
 10
       85.000000
 20
      -23.336664
 30
        0.000000
 11
       85.000000
 21
       23.336668
 31
        0.000000
  0
LINE
  8
0
 10
      103.500000
 20
       30.000002
 30
        0.000000
 11
       90.685974
 21
       29.328447
 31
        0.000000
  0
ARC
  8
0
 10
       91.000000
 20
      -23.336664
 30
        0.000000
 40
        6.000000
 50
      180.000015
 51
      267.000078
  0
LINE
  8
0
 10
      103.500000
 20
      -29.999998
 30
        0.000000
 11
       90.685974
 21
      -29.328442
 31
        0.000000
  0
LINE
  8
0
 10
      103.500000
 20
      -29.999998
 30
        0.000000
 11
      103.500000
 21
       30.000002
 31
        0.000000
  0
LINE
  8
0
 10
      103.500000
 20
        4.500002
 30
        0.000000
 11
      104.000000
 21
        4.500002
 31
        0.000000
  0
LINE
  8
0
 10
      103.500000
 20
       -4.499998
 30
        0.000000
 11
      104.000000
 21
       -4.499998
 31
        0.000000
  0
LINE
  8
0
 10
      104.000000
 20
       -4.499998
 30
        0.000000
 11
      104.000000
 21
        4.500002
 31
        0.000000
  0
ARC
  8
0
 10
      -34.000000
 20
       29.000002
 30
        0.000000
 40
        1.000000
 50
       90.000000
 51
      180.000015
  0
ARC
  8
0
 10
      -34.000000
 20
      -28.999998
 30
        0.000000
 40
        1.000000
 50
      180.000015
 51
      270.000000
  0
ARC
  8
0
 10
       34.000000
 20
      -28.999998
 30
        0.000000
 40
        1.000000
 50
      270.000000
 51
      360.000000
  0
ARC
  8
0
 10
       34.000000
 20
       29.000002
 30
        0.000000
 40
        1.000000
 50
        0.000000
 51
       90.000000
  0
ARC
  8
0
 10
      -29.000000
 20
       17.000002
 30
        0.000000
 40
        3.000000
 50
       90.000000
 51
      180.000015
  0
LINE
  8
0
 10
      -32.000000
 20
      -16.999998
 30
        0.000000
 11
      -32.000000
 21
       17.000002
 31
        0.000000
  0
LINE
  8
0
 10
      -29.000000
 20
       20.000002
 30
        0.000000
 11
       29.000000
 21
       20.000002
 31
        0.000000
  0
ARC
  8
0
 10
      -29.000000
 20
      -16.999998
 30
        0.000000
 40
        3.000000
 50
      180.000015
 51
      270.000000
  0
LINE
  8
0
 10
      -29.000000
 20
      -19.999998
 30
        0.000000
 11
       29.000000
 21
      -19.999998
 31
        0.000000
  0
ARC
  8
0
 10
       29.000000
 20
      -16.999998
 30
        0.000000
 40
        3.000000
 50
      270.000000
 51
      360.000000
  0
LINE
  8
0
 10
       32.000000
 20
      -16.999998
 30
        0.000000
 11
       32.000000
 21
       17.000010
 31
        0.000000
  0
ARC
  8
0
 10
       29.000000
 20
       17.000002
 30
        0.000000
 40
        3.000000
 50
        0.000000
 51
       90.000000
  0
LINE
  8
0
 10
       -1.300003
 20
       24.000006
 30
        0.000000
 11
       -1.300003
 21
       26.005302
 31
        0.000000
  0
LINE
  8
0
 10
        1.300003
 20
       24.000006
 30
        0.000000
 11
        1.300003
 21
       26.005302
 31
        0.000000
  0
ARC
  8
0
 10
        0.000000
 20
       26.005302
 30
        0.000000
 40
        1.300003
 50
        0.000000
 51
      180.000015
  0
CIRCLE
  8
0
 10
        0.000000
 20
       24.000006
 30
        0.000000
 40
        1.300003
  0
LINE
  8
0
 10
      -34.423492
 20
      -23.336668
 30
        0.000000
 11
      -34.423492
 21
       23.336672
 31
        0.000000
  0
LINE
  8
0
 10
       34.423492
 20
      -23.336668
 30
        0.000000
 11
       34.423492
 21
       23.336672
 31
        0.000000
  0
LINE
  8
0
 10
      -35.000000
 20
      -29.999998
 30
        0.000000
 11
      -35.000000
 21
       30.000002
 31
        0.000000
  0
LINE
  8
0
 10
       35.000000
 20
      -29.999998
 30
        0.000000
 11
       35.000000
 21
       30.000002
 31
        0.000000
  0
CIRCLE
  8
0
 10
      -40.000000
 20
       -0.000002
 30
        0.000000
 40
        3.000000
  0
CIRCLE
  8
0
 10
      -40.000000
 20
       -0.000002
 30
        0.000000
 40
        2.250000
  0
CIRCLE
  8
0
 10
       40.000000
 20
        0.000005
 30
        0.000000
 40
        3.000000
  0
CIRCLE
  8
0
 10
       40.000000
 20
        0.000005
 30
        0.000000
 40
        2.250000
  0
LINE
  8
0
 10
      -35.000000
 20
       29.700003
 30
        0.000000
 11
      -40.000000
 21
       29.700003
 31
        0.000000
  0
LINE
  8
0
 10
       40.000000
 20
       29.700003
 30
        0.000000
 11
       35.000000
 21
       29.700003
 31
        0.000000
  0
LINE
  8
0
 10
       35.000000
 20
      -29.699999
 30
        0.000000
 11
       40.000000
 21
      -29.699999
 31
        0.000000
  0
LINE
  8
0
 10
      -40.000000
 20
      -29.699999
 30
        0.000000
 11
      -35.000000
 21
      -29.699999
 31
        0.000000
  0
ARC
  8
0
 10
       40.000000
 20
      -24.999998
 30
        0.000000
 40
        4.699999
 50
      270.000000
 51
      360.000000
  0
ARC
  8
0
 10
      -40.000000
 20
      -24.999998
 30
        0.000000
 40
        4.700012
 50
      180.000015
 51
      270.000000
  0
LINE
  8
0
 10
      -44.700012
 20
       25.000002
 30
        0.000000
 11
      -44.700012
 21
      -24.999998
 31
        0.000000
  0
ARC
  8
0
 10
      -40.000000
 20
       25.000002
 30
        0.000000
 40
        4.699999
 50
       90.000000
 51
      180.000015
  0
ARC
  8
0
 10
       40.000000
 20
       25.000002
 30
        0.000000
 40
        4.700012
 50
        0.000000
 51
       90.000000
  0
LINE
  8
0
 10
       44.700012
 20
      -24.999998
 30
        0.000000
 11
       44.700012
 21
       25.000002
 31
        0.000000
  0
ARC
  8
0
 10
       40.000000
 20
       25.000002
 30
        0.000000
 40
        5.000000
 50
        0.000000
 51
       90.000000
  0
LINE
  8
0
 10
      -40.000000
 20
       30.000002
 30
        0.000000
 11
       40.000000
 21
       30.000002
 31
        0.000000
  0
LINE
  8
0
 10
       45.000000
 20
      -24.999998
 30
        0.000000
 11
       45.000000
 21
       25.000002
 31
        0.000000
  0
ARC
  8
0
 10
       40.000000
 20
      -24.999998
 30
        0.000000
 40
        5.000000
 50
      270.000000
 51
      360.000000
  0
LINE
  8
0
 10
      -40.000000
 20
      -29.999998
 30
        0.000000
 11
       40.000000
 21
      -29.999998
 31
        0.000000
  0
ARC
  8
0
 10
      -40.000000
 20
      -24.999998
 30
        0.000000
 40
        5.000000
 50
      180.000015
 51
      270.000000
  0
LINE
  8
0
 10
      -45.000000
 20
      -24.999998
 30
        0.000000
 11
      -45.000000
 21
       25.000978
 31
        0.000000
  0
ARC
  8
0
 10
      -40.000000
 20
       25.000002
 30
        0.000000
 40
        5.000000
 50
       90.000000
 51
      180.000015
  0
ARC
  8
0
 10
       10.336212
 20
       13.296265
 30
        0.000000
 40
        1.089172
 50
      287.649596
 51
      309.340827
  0
ARC
  8
0
 10
       10.219696
 20
       13.662476
 30
        0.000000
 40
        1.473449
 50
      271.564282
 51
      287.650416
  0
ARC
  8
0
 10
       10.132690
 20
       16.848267
 30
        0.000000
 40
        4.660469
 50
      256.624775
 51
      271.564720
  0
LINE
  8
0
 10
        9.054596
 20
       13.312927
 30
        0.000000
 11
        9.054596
 21
       12.314270
 31
        0.000000
  0
ARC
  8
0
 10
        9.901672
 20
        7.549255
 30
        0.000000
 40
        5.825544
 50
       85.450669
 51
       98.360859
  0
ARC
  8
0
 10
       10.252991
 20
       11.964722
 30
        0.000000
 40
        1.396140
 50
       58.781076
 51
       85.450252
  0
ARC
  8
0
 10
       10.752319
 20
       12.788635
 30
        0.000000
 40
        0.432768
 50
      309.336893
 51
      418.781595
  0
ARC
  8
0
 10
       11.068573
 20
       13.362854
 30
        0.000000
 40
        1.624378
 50
      299.475877
 51
      319.591110
  0
ARC
  8
0
 10
       10.635834
 20
       14.128479
 30
        0.000000
 40
        2.503850
 50
      285.167724
 51
      299.476369
  0
ARC
  8
0
 10
       10.419952
 20
       14.924805
 30
        0.000000
 40
        3.328868
 50
      274.224313
 51
      285.167806
  0
ARC
  8
0
 10
       10.174744
 20
       18.244629
 30
        0.000000
 40
        6.657773
 50
      260.314143
 51
      274.224286
  0
LINE
  8
0
 10
        9.054596
 20
       10.500000
 30
        0.000000
 11
        9.054596
 21
       11.681763
 31
        0.000000
  0
LINE
  8
0
 10
        7.889496
 20
       10.500000
 30
        0.000000
 11
        9.054596
 21
       10.500000
 31
        0.000000
  0
LINE
  8
0
 10
        7.889496
 20
       13.828918
 30
        0.000000
 11
        7.889496
 21
       10.500000
 31
        0.000000
  0
ARC
  8
0
 10
        9.667694
 20
        0.632568
 30
        0.000000
 40
       13.315602
 50
       86.863432
 51
       97.674472
  0
ARC
  8
0
 10
       10.031982
 20
        7.280396
 30
        0.000000
 40
        6.657762
 50
       77.456090
 51
       86.863411
  0
ARC
  8
0
 10
       10.985352
 20
       11.565247
 30
        0.000000
 40
        2.268151
 50
       61.232772
 51
       77.456083
  0
ARC
  8
0
 10
       11.684418
 20
       12.838562
 30
        0.000000
 40
        0.815569
 50
      319.590810
 51
      421.233428
  0
ARC
  8
0
 10
        6.274963
 20
       13.496033
 30
        0.000000
 40
        1.615039
 50
      297.321362
 51
      312.274557
  0
ARC
  8
0
 10
        5.877960
 20
       14.264526
 30
        0.000000
 40
        2.479999
 50
      277.657084
 51
      297.321062
  0
LINE
  8
0
 10
        7.772980
 20
       10.500000
 30
        0.000000
 11
        6.208374
 21
       11.806580
 31
        0.000000
  0
LINE
  8
0
 10
        6.025299
 20
       10.500000
 30
        0.000000
 11
        7.772980
 21
       10.500000
 31
        0.000000
  0
LINE
  8
0
 10
        4.277618
 20
       11.981384
 30
        0.000000
 11
        6.025299
 21
       10.500000
 31
        0.000000
  0
LINE
  8
0
 10
        4.527283
 20
       12.314270
 30
        0.000000
 11
        4.277618
 21
       11.981384
 31
        0.000000
  0
ARC
  8
0
 10
        5.383362
 20
       16.895386
 30
        0.000000
 40
        4.660472
 50
      259.415672
 51
      269.256007
  0
ARC
  8
0
 10
        5.342865
 20
       13.778931
 30
        0.000000
 40
        1.543770
 50
      269.255843
 51
      286.189247
  0
ARC
  8
0
 10
        5.492676
 20
       13.263000
 30
        0.000000
 40
        1.006462
 50
      286.189056
 51
      310.425489
  0
ARC
  8
0
 10
        5.875488
 20
       12.813599
 30
        0.000000
 40
        0.416121
 50
      310.425379
 51
      419.884547
  0
ARC
  8
0
 10
        5.392822
 20
       11.981384
 30
        0.000000
 40
        1.378212
 50
       59.886569
 51
       83.594981
  0
ARC
  8
0
 10
        4.989502
 20
        8.388794
 30
        0.000000
 40
        4.993326
 50
       83.594954
 51
       99.549598
  0
LINE
  8
0
 10
        4.161133
 20
       10.500000
 30
        0.000000
 11
        4.161133
 21
       13.312927
 31
        0.000000
  0
LINE
  8
0
 10
        2.996002
 20
       10.500000
 30
        0.000000
 11
        4.161133
 21
       10.500000
 31
        0.000000
  0
LINE
  8
0
 10
        2.996002
 20
       13.828918
 30
        0.000000
 11
        2.996002
 21
       10.500000
 31
        0.000000
  0
ARC
  8
0
 10
        4.774658
 20
        0.632629
 30
        0.000000
 40
       13.315560
 50
       86.725722
 51
       97.676351
  0
ARC
  8
0
 10
        5.202454
 20
        8.110413
 30
        0.000000
 40
        5.825553
 50
       73.996838
 51
       86.725701
  0
ARC
  8
0
 10
        6.408112
 20
       12.314270
 30
        0.000000
 40
        1.452271
 50
       50.280753
 51
       73.996285
  0
ARC
  8
0
 10
        6.857513
 20
       12.855225
 30
        0.000000
 40
        0.748997
 50
      312.275268
 51
      410.279865
  0
LINE
  8
0
 10
        0.565918
 20
       11.964722
 30
        0.000000
 11
       -0.133148
 21
       13.096558
 31
        0.000000
  0
LINE
  8
0
 10
       -0.815582
 20
       11.964722
 30
        0.000000
 11
        0.565918
 21
       11.964722
 31
        0.000000
  0
LINE
  8
0
 10
       -0.133148
 20
       13.096558
 30
        0.000000
 11
       -0.815582
 21
       11.964722
 31
        0.000000
  0
LINE
  8
0
 10
       -0.565918
 20
       13.828918
 30
        0.000000
 11
       -2.596527
 21
       10.500000
 31
        0.000000
  0
LINE
  8
0
 10
        0.865509
 20
       13.828918
 30
        0.000000
 11
       -0.565918
 21
       13.828918
 31
        0.000000
  0
LINE
  8
0
 10
        2.896149
 20
       10.500000
 30
        0.000000
 11
        0.865509
 21
       13.828918
 31
        0.000000
  0
LINE
  8
0
 10
        1.448059
 20
       10.500000
 30
        0.000000
 11
        2.896149
 21
       10.500000
 31
        0.000000
  0
LINE
  8
0
 10
        0.982025
 20
       11.265625
 30
        0.000000
 11
        1.448059
 21
       10.500000
 31
        0.000000
  0
LINE
  8
0
 10
       -1.248322
 20
       11.265625
 30
        0.000000
 11
        0.982025
 21
       11.265625
 31
        0.000000
  0
LINE
  8
0
 10
       -1.714386
 20
       10.500000
 30
        0.000000
 11
       -1.248322
 21
       11.265625
 31
        0.000000
  0
LINE
  8
0
 10
       -2.596527
 20
       10.500000
 30
        0.000000
 11
       -1.714386
 21
       10.500000
 31
        0.000000
  0
LINE
  8
0
 10
       -7.273621
 20
       13.828918
 30
        0.000000
 11
       -7.273621
 21
       10.500000
 31
        0.000000
  0
LINE
  8
0
 10
       -6.108521
 20
       13.828918
 30
        0.000000
 11
       -7.273621
 21
       13.828918
 31
        0.000000
  0
LINE
  8
0
 10
       -6.108521
 20
       12.563904
 30
        0.000000
 11
       -6.108521
 21
       13.828918
 31
        0.000000
  0
LINE
  8
0
 10
       -3.878174
 20
       12.563904
 30
        0.000000
 11
       -6.108521
 21
       12.563904
 31
        0.000000
  0
LINE
  8
0
 10
       -3.878174
 20
       13.828918
 30
        0.000000
 11
       -3.878174
 21
       12.563904
 31
        0.000000
  0
LINE
  8
0
 10
       -2.713043
 20
       13.828918
 30
        0.000000
 11
       -3.878174
 21
       13.828918
 31
        0.000000
  0
LINE
  8
0
 10
       -2.713043
 20
       10.500000
 30
        0.000000
 11
       -2.713043
 21
       13.828918
 31
        0.000000
  0
LINE
  8
0
 10
       -3.878174
 20
       10.500000
 30
        0.000000
 11
       -2.713043
 21
       10.500000
 31
        0.000000
  0
LINE
  8
0
 10
       -3.878174
 20
       11.864868
 30
        0.000000
 11
       -3.878174
 21
       10.500000
 31
        0.000000
  0
LINE
  8
0
 10
       -6.108521
 20
       11.864868
 30
        0.000000
 11
       -3.878174
 21
       11.864868
 31
        0.000000
  0
LINE
  8
0
 10
       -6.108521
 20
       10.500000
 30
        0.000000
 11
       -6.108521
 21
       11.864868
 31
        0.000000
  0
LINE
  8
0
 10
       -7.273621
 20
       10.500000
 30
        0.000000
 11
       -6.108521
 21
       10.500000
 31
        0.000000
  0
ARC
  8
0
 10
       -8.821564
 20
       11.948059
 30
        0.000000
 40
        1.504030
 50
      288.239014
 51
      311.987525
  0
ARC
  8
0
 10
       -9.304260
 20
       13.412781
 30
        0.000000
 40
        3.046193
 50
      277.792021
 51
      288.239560
  0
ARC
  8
0
 10
       -9.793915
 20
       16.991028
 30
        0.000000
 40
        6.657780
 50
      254.077497
 51
      277.792049
  0
ARC
  8
0
 10
       -7.054199
 20
       26.594543
 30
        0.000000
 40
       16.644495
 50
      250.902115
 51
      254.077470
  0
LINE
  8
0
 10
      -12.067230
 20
       11.681763
 30
        0.000000
 11
      -12.500000
 21
       10.866150
 31
        0.000000
  0
ARC
  8
0
 10
       -8.939087
 20
       18.487244
 30
        0.000000
 40
        7.489985
 50
      245.314119
 51
      266.250943
  0
ARC
  8
0
 10
       -9.370850
 20
       11.898132
 30
        0.000000
 40
        0.886785
 50
      266.250997
 51
      291.521494
  0
ARC
  8
0
 10
       -9.137817
 20
       11.307251
 30
        0.000000
 40
        0.251605
 50
      291.517505
 51
      428.082284
  0
ARC
  8
0
 10
       -9.703735
 20
        9.900818
 30
        0.000000
 40
        1.767600
 50
       68.081573
 51
       80.653089
  0
ARC
  8
0
 10
      -14.012085
 20
      -16.274961
 30
        0.000000
 40
       28.295586
 50
       80.653308
 51
       81.633891
  0
ARC
  8
0
 10
       -5.778198
 20
       39.713989
 30
        0.000000
 40
       28.295609
 50
      259.396548
 51
      261.633954
  0
ARC
  8
0
 10
      -10.311066
 20
       15.500854
 30
        0.000000
 40
        3.661764
 50
      244.471164
 51
      259.396657
  0
ARC
  8
0
 10
      -11.451385
 20
       13.113159
 30
        0.000000
 40
        1.015790
 50
      220.235360
 51
      244.470891
  0
ARC
  8
0
 10
      -11.667786
 20
       12.930115
 30
        0.000000
 40
        0.732348
 50
      126.252938
 51
      220.236166
  0
ARC
  8
0
 10
      -11.118500
 20
       12.181091
 30
        0.000000
 40
        1.661182
 50
      109.058062
 51
      126.253758
  0
ARC
  8
0
 10
      -10.573944
 20
       10.604797
 30
        0.000000
 40
        3.328896
 50
      101.482678
 51
      109.058116
  0
ARC
  8
0
 10
      -10.076935
 20
        8.158081
 30
        0.000000
 40
        5.825549
 50
       88.304513
 51
      101.482638
  0
ARC
  8
0
 10
      -10.150818
 20
        5.662476
 30
        0.000000
 40
        8.322229
 50
       72.799212
 51
       88.304636
  0
LINE
  8
0
 10
       -8.022644
 20
       12.830200
 30
        0.000000
 11
       -7.689758
 21
       13.612549
 31
        0.000000
  0
ARC
  8
0
 10
      -11.149200
 20
        4.226196
 30
        0.000000
 40
        9.154466
 50
       70.029666
 51
       80.321572
  0
ARC
  8
0
 10
      -10.589539
 20
        7.507751
 30
        0.000000
 40
        5.825590
 50
       80.321743
 51
       91.192261
  0
ARC
  8
0
 10
      -10.702393
 20
       12.930115
 30
        0.000000
 40
        0.402065
 50
       91.191674
 51
      128.658353
  0
ARC
  8
0
 10
      -10.835541
 20
       13.096558
 30
        0.000000
 40
        0.188916
 50
      128.658353
 51
      241.928886
  0
ARC
  8
0
 10
      -10.436096
 20
       13.845520
 30
        0.000000
 40
        1.037734
 50
      241.927711
 51
      259.497990
  0
ARC
  8
0
 10
       -5.771240
 20
       39.010254
 30
        0.000000
 40
       26.631157
 50
      259.498235
 51
      261.374516
  0
ARC
  8
0
 10
      -13.260071
 20
      -10.358397
 30
        0.000000
 40
       23.302286
 50
       78.977897
 51
       81.374467
  0
ARC
  8
0
 10
       -9.791199
 20
        8.300293
 30
        0.000000
 40
        4.327566
 50
       71.024954
 51
       76.826742
  0
ARC
  8
0
 10
       -8.954712
 20
       10.733032
 30
        0.000000
 40
        1.755044
 50
       50.855974
 51
       71.024435
  0
ARC
  8
0
 10
       -8.372162
 20
       11.448730
 30
        0.000000
 40
        0.832229
 50
      311.987225
 51
      410.856241
  0
LINE
  8
0
 10
       13.690674
 20
        0.000000
 30
        0.000000
 11
       13.690674
 21
       -2.500000
 31
        0.000000
  0
LINE
  8
0
 10
       14.053162
 20
        0.000000
 30
        0.000000
 11
       13.690674
 21
        0.000000
 31
        0.000000
  0
LINE
  8
0
 10
       14.053162
 20
       -1.195129
 30
        0.000000
 11
       14.053162
 21
        0.000000
 31
        0.000000
  0
LINE
  8
0
 10
       15.278137
 20
        0.000000
 30
        0.000000
 11
       14.053162
 21
       -1.195129
 31
        0.000000
  0
LINE
  8
0
 10
       15.753174
 20
        0.000000
 30
        0.000000
 11
       15.278137
 21
        0.000000
 31
        0.000000
  0
LINE
  8
0
 10
       14.690674
 20
       -1.025024
 30
        0.000000
 11
       15.753174
 21
        0.000000
 31
        0.000000
  0
LINE
  8
0
 10
       15.828186
 20
       -2.500000
 30
        0.000000
 11
       14.690674
 21
       -1.025024
 31
        0.000000
  0
LINE
  8
0
 10
       15.378174
 20
       -2.500000
 30
        0.000000
 11
       15.828186
 21
       -2.500000
 31
        0.000000
  0
LINE
  8
0
 10
       14.453186
 20
       -1.250000
 30
        0.000000
 11
       15.378174
 21
       -2.500000
 31
        0.000000
  0
LINE
  8
0
 10
       14.053162
 20
       -1.625000
 30
        0.000000
 11
       14.453186
 21
       -1.250000
 31
        0.000000
  0
LINE
  8
0
 10
       14.053162
 20
       -2.500000
 30
        0.000000
 11
       14.053162
 21
       -1.625000
 31
        0.000000
  0
LINE
  8
0
 10
       13.690674
 20
       -2.500000
 30
        0.000000
 11
       14.053162
 21
       -2.500000
 31
        0.000000
  0
LINE
  8
0
 10
       11.865662
 20
       -0.299988
 30
        0.000000
 11
       11.865662
 21
       -1.187500
 31
        0.000000
  0
LINE
  8
0
 10
       12.618530
 20
       -0.299988
 30
        0.000000
 11
       11.865662
 21
       -0.299988
 31
        0.000000
  0
ARC
  8
0
 10
       12.618530
 20
       -0.712524
 30
        0.000000
 40
        0.412515
 50
       15.463304
 51
       90.000000
  0
ARC
  8
0
 10
       12.528137
 20
       -0.737488
 30
        0.000000
 40
        0.506247
 50
      342.080599
 51
      375.467050
  0
ARC
  8
0
 10
       12.605469
 20
       -0.762512
 30
        0.000000
 40
        0.424988
 50
      270.000000
 51
      342.074999
  0
LINE
  8
0
 10
       11.865662
 20
       -1.187500
 30
        0.000000
 11
       12.605469
 21
       -1.187500
 31
        0.000000
  0
LINE
  8
0
 10
       11.503174
 20
        0.000000
 30
        0.000000
 11
       11.503174
 21
       -2.500000
 31
        0.000000
  0
LINE
  8
0
 10
       12.662476
 20
        0.000000
 30
        0.000000
 11
       11.503174
 21
        0.000000
 31
        0.000000
  0
ARC
  8
0
 10
       12.662476
 20
       -0.712524
 30
        0.000000
 40
        0.712499
 50
       14.475506
 51
       90.000000
  0
ARC
  8
0
 10
       12.565674
 20
       -0.737488
 30
        0.000000
 40
        0.812483
 50
      345.522195
 51
      374.477822
  0
ARC
  8
0
 10
       12.662476
 20
       -0.762512
 30
        0.000000
 40
        0.712524
 50
      270.000000
 51
      345.525419
  0
LINE
  8
0
 10
       11.865662
 20
       -1.474976
 30
        0.000000
 11
       12.662476
 21
       -1.474976
 31
        0.000000
  0
LINE
  8
0
 10
       11.865662
 20
       -2.500000
 30
        0.000000
 11
       11.865662
 21
       -1.474976
 31
        0.000000
  0
LINE
  8
0
 10
       11.503174
 20
       -2.500000
 30
        0.000000
 11
       11.865662
 21
       -2.500000
 31
        0.000000
  0
ARC
  8
0
 10
       10.033173
 20
       -0.920288
 30
        0.000000
 40
        0.711198
 50
       67.380885
 51
       90.000000
  0
ARC
  8
0
 10
       10.162476
 20
       -0.609924
 30
        0.000000
 40
        0.374976
 50
      292.620608
 51
      427.379416
  0
ARC
  8
0
 10
       10.033173
 20
       -0.299561
 30
        0.000000
 40
        0.711182
 50
      270.000000
 51
      292.619679
  0
ARC
  8
0
 10
       10.033173
 20
       -0.299561
 30
        0.000000
 40
        0.711198
 50
      247.380906
 51
      270.000000
  0
ARC
  8
0
 10
        9.903870
 20
       -0.609924
 30
        0.000000
 40
        0.374977
 50
      112.620572
 51
      247.379431
  0
ARC
  8
0
 10
       10.033173
 20
       -0.920288
 30
        0.000000
 40
        0.711182
 50
       90.000000
 51
      112.619650
  0
ARC
  8
0
 10
       10.033173
 20
       -2.071106
 30
        0.000000
 40
        0.801741
 50
       62.447856
 51
       90.000000
  0
ARC
  8
0
 10
       10.188324
 20
       -1.773682
 30
        0.000000
 40
        0.466267
 50
      297.551239
 51
      422.448778
  0
ARC
  8
0
 10
       10.033173
 20
       -1.476318
 30
        0.000000
 40
        0.801697
 50
      270.000000
 51
      297.552550
  0
ARC
  8
0
 10
       10.033173
 20
       -1.476318
 30
        0.000000
 40
        0.801741
 50
      242.447871
 51
      270.000000
  0
ARC
  8
0
 10
        9.877991
 20
       -1.773682
 30
        0.000000
 40
        0.466267
 50
      117.551210
 51
      242.448800
  0
ARC
  8
0
 10
       10.033173
 20
       -2.071106
 30
        0.000000
 40
        0.801697
 50
       90.000000
 51
      117.552535
  0
ARC
  8
0
 10
       10.033173
 20
       -1.075439
 30
        0.000000
 40
        1.137920
 50
       62.240525
 51
       90.000000
  0
ARC
  8
0
 10
       10.291779
 20
       -0.584045
 30
        0.000000
 40
        0.582628
 50
      292.075067
 51
      422.242554
  0
ARC
  8
0
 10
       10.330566
 20
       -1.747864
 30
        0.000000
 40
        0.649343
 50
       30.966064
 51
       73.893285
  0
ARC
  8
0
 10
       10.265930
 20
       -1.786621
 30
        0.000000
 40
        0.724728
 50
      294.775833
 51
      390.962393
  0
ARC
  8
0
 10
       10.033173
 20
       -1.282349
 30
        0.000000
 40
        1.280151
 50
      270.000000
 51
      294.774931
  0
ARC
  8
0
 10
       10.033173
 20
       -1.282349
 30
        0.000000
 40
        1.280181
 50
      245.224971
 51
      270.000000
  0
ARC
  8
0
 10
        9.800415
 20
       -1.786621
 30
        0.000000
 40
        0.724734
 50
      149.037069
 51
      245.224425
  0
ARC
  8
0
 10
        9.735748
 20
       -1.747864
 30
        0.000000
 40
        0.649330
 50
      106.107031
 51
      149.033231
  0
ARC
  8
0
 10
        9.774536
 20
       -0.584045
 30
        0.000000
 40
        0.582618
 50
      117.759654
 51
      247.927813
  0
ARC
  8
0
 10
       10.033173
 20
       -1.075439
 30
        0.000000
 40
        1.137939
 50
       90.000000
 51
      117.759832
  0
LINE
  8
0
 10
        8.576263
 20
       -1.099976
 30
        0.000000
 11
        7.513763
 21
       -1.099976
 31
        0.000000
  0
LINE
  8
0
 10
        8.576263
 20
       -1.424988
 30
        0.000000
 11
        8.576263
 21
       -1.099976
 31
        0.000000
  0
LINE
  8
0
 10
        7.513763
 20
       -1.424988
 30
        0.000000
 11
        8.576263
 21
       -1.424988
 31
        0.000000
  0
LINE
  8
0
 10
        7.513763
 20
       -1.099976
 30
        0.000000
 11
        7.513763
 21
       -1.424988
 31
        0.000000
  0
LINE
  8
0
 10
        5.277649
 20
       -1.625244
 30
        0.000000
 11
        4.935089
 21
       -1.637451
 31
        0.000000
  0
ARC
  8
0
 10
        5.921844
 20
       -1.625000
 30
        0.000000
 40
        0.644165
 50
      180.021749
 51
      254.358764
  0
ARC
  8
0
 10
        6.009338
 20
       -1.312500
 30
        0.000000
 40
        0.968680
 50
      254.356852
 51
      286.857786
  0
ARC
  8
0
 10
        6.134338
 20
       -1.724976
 30
        0.000000
 40
        0.537689
 50
      286.856256
 51
      327.531943
  0
ARC
  8
0
 10
        6.271851
 20
       -1.812500
 30
        0.000000
 40
        0.374687
 50
      327.526670
 51
      423.433732
  0
ARC
  8
0
 10
        5.809326
 20
       -2.737488
 30
        0.000000
 40
        1.408870
 50
       63.434948
 51
       77.660271
  0
LINE
  8
0
 10
        5.648987
 20
       -1.260254
 30
        0.000000
 11
        6.110413
 21
       -1.361206
 31
        0.000000
  0
ARC
  8
0
 10
        5.972198
 20
        0.217346
 30
        0.000000
 40
        1.512486
 50
      248.879996
 51
      257.660997
  0
ARC
  8
0
 10
        5.646851
 20
       -0.625000
 30
        0.000000
 40
        0.609530
 50
      142.430705
 51
      248.882319
  0
ARC
  8
0
 10
        5.728088
 20
       -0.687500
 30
        0.000000
 40
        0.712017
 50
      108.590255
 51
      142.429408
  0
ARC
  8
0
 10
        5.959351
 20
       -1.375000
 30
        0.000000
 40
        1.437397
 50
       78.690305
 51
      108.591416
  0
ARC
  8
0
 10
        6.084351
 20
       -0.750000
 30
        0.000000
 40
        0.799988
 50
        0.000000
 51
       78.690038
  0
LINE
  8
0
 10
        6.563263
 20
       -0.750000
 30
        0.000000
 11
        6.884338
 21
       -0.750000
 31
        0.000000
  0
ARC
  8
0
 10
        6.009338
 20
       -0.775024
 30
        0.000000
 40
        0.554490
 50
        2.586668
 51
       78.929013
  0
ARC
  8
0
 10
        5.953094
 20
       -1.062500
 30
        0.000000
 40
        0.847434
 50
       78.929614
 51
      110.281383
  0
ARC
  8
0
 10
        5.846832
 20
       -0.775024
 30
        0.000000
 40
        0.540932
 50
      110.284395
 51
      128.157004
  0
ARC
  8
0
 10
        5.709351
 20
       -0.599976
 30
        0.000000
 40
        0.318403
 50
      128.157222
 51
      245.322916
  0
ARC
  8
0
 10
        6.134705
 20
        0.326111
 30
        0.000000
 40
        1.337485
 50
      245.328435
 51
      258.304701
  0
LINE
  8
0
 10
        6.219666
 20
       -1.057312
 30
        0.000000
 11
        5.863586
 21
       -0.983643
 31
        0.000000
  0
ARC
  8
0
 10
        5.829651
 20
       -2.942383
 30
        0.000000
 40
        1.925018
 50
       66.620473
 51
       78.310772
  0
ARC
  8
0
 10
        6.334351
 20
       -1.775024
 30
        0.000000
 40
        0.653190
 50
       11.310982
 51
       66.618786
  0
ARC
  8
0
 10
        6.271851
 20
       -1.787476
 30
        0.000000
 40
        0.716943
 50
      323.129148
 51
      371.311550
  0
ARC
  8
0
 10
        6.221832
 20
       -1.750000
 30
        0.000000
 40
        0.779413
 50
      289.572950
 51
      323.130569
  0
ARC
  8
0
 10
        6.021851
 20
       -1.187500
 30
        0.000000
 40
        1.376453
 50
      250.016704
 51
      289.573633
  0
ARC
  8
0
 10
        5.871826
 20
       -1.599976
 30
        0.000000
 40
        0.937486
 50
      182.291011
 51
      250.017305
  0
LINE
  8
0
 10
        2.921844
 20
       -0.299988
 30
        0.000000
 11
        2.921844
 21
       -2.200012
 31
        0.000000
  0
LINE
  8
0
 10
        3.521851
 20
       -0.299988
 30
        0.000000
 11
        2.921844
 21
       -0.299988
 31
        0.000000
  0
ARC
  8
0
 10
        3.521851
 20
       -1.049988
 30
        0.000000
 40
        0.749973
 50
       60.656215
 51
       90.000000
  0
ARC
  8
0
 10
        3.601471
 20
       -0.908325
 30
        0.000000
 40
        0.587492
 50
       19.228383
 51
       60.657581
  0
ARC
  8
0
 10
        2.621826
 20
       -1.250000
 30
        0.000000
 40
        1.624991
 50
      341.769554
 51
      379.225760
  0
ARC
  8
0
 10
        3.619141
 20
       -1.578491
 30
        0.000000
 40
        0.574990
 50
      321.114133
 51
      341.770018
  0
ARC
  8
0
 10
        3.521851
 20
       -1.500000
 30
        0.000000
 40
        0.700012
 50
      270.000000
 51
      321.114434
  0
LINE
  8
0
 10
        2.921844
 20
       -2.200012
 30
        0.000000
 11
        3.521851
 21
       -2.200012
 31
        0.000000
  0
LINE
  8
0
 10
        2.559326
 20
        0.000000
 30
        0.000000
 11
        2.559326
 21
       -2.500000
 31
        0.000000
  0
LINE
  8
0
 10
        3.534332
 20
        0.000000
 30
        0.000000
 11
        2.559326
 21
        0.000000
 31
        0.000000
  0
ARC
  8
0
 10
        3.534332
 20
       -1.087524
 30
        0.000000
 40
        1.087514
 50
       49.809053
 51
       90.000000
  0
ARC
  8
0
 10
        3.615021
 20
       -0.992004
 30
        0.000000
 40
        0.962496
 50
       14.776480
 51
       49.807424
  0
ARC
  8
0
 10
        2.684326
 20
       -1.237488
 30
        0.000000
 40
        1.925008
 50
      344.634790
 51
      374.776392
  0
ARC
  8
0
 10
        3.576263
 20
       -1.482605
 30
        0.000000
 40
        1.000012
 50
      299.129177
 51
      344.632768
  0
ARC
  8
0
 10
        3.509338
 20
       -1.362488
 30
        0.000000
 40
        1.137512
 50
      270.000000
 51
      299.131390
  0
LINE
  8
0
 10
        2.559326
 20
       -2.500000
 30
        0.000000
 11
        3.509338
 21
       -2.500000
 31
        0.000000
  0
LINE
  8
0
 10
       -2.665649
 20
        0.000000
 30
        0.000000
 11
       -2.665649
 21
       -2.500000
 31
        0.000000
  0
LINE
  8
0
 10
       -0.815674
 20
        0.000000
 30
        0.000000
 11
       -2.665649
 21
        0.000000
 31
        0.000000
  0
LINE
  8
0
 10
       -0.815674
 20
       -0.312500
 30
        0.000000
 11
       -0.815674
 21
        0.000000
 31
        0.000000
  0
LINE
  8
0
 10
       -2.303162
 20
       -0.312500
 30
        0.000000
 11
       -0.815674
 21
       -0.312500
 31
        0.000000
  0
LINE
  8
0
 10
       -2.303162
 20
       -1.049988
 30
        0.000000
 11
       -2.303162
 21
       -0.312500
 31
        0.000000
  0
LINE
  8
0
 10
       -0.940674
 20
       -1.049988
 30
        0.000000
 11
       -2.303162
 21
       -1.049988
 31
        0.000000
  0
LINE
  8
0
 10
       -0.940674
 20
       -1.349976
 30
        0.000000
 11
       -0.940674
 21
       -1.049988
 31
        0.000000
  0
LINE
  8
0
 10
       -2.303162
 20
       -1.349976
 30
        0.000000
 11
       -0.940674
 21
       -1.349976
 31
        0.000000
  0
LINE
  8
0
 10
       -2.303162
 20
       -2.174988
 30
        0.000000
 11
       -2.303162
 21
       -1.349976
 31
        0.000000
  0
LINE
  8
0
 10
       -0.778168
 20
       -2.174988
 30
        0.000000
 11
       -2.303162
 21
       -2.174988
 31
        0.000000
  0
LINE
  8
0
 10
       -0.778168
 20
       -2.500000
 30
        0.000000
 11
       -0.778168
 21
       -2.174988
 31
        0.000000
  0
LINE
  8
0
 10
       -2.665649
 20
       -2.500000
 30
        0.000000
 11
       -0.778168
 21
       -2.500000
 31
        0.000000
  0
LINE
  8
0
 10
       -4.953156
 20
        0.000000
 30
        0.000000
 11
       -4.953156
 21
       -0.299988
 31
        0.000000
  0
LINE
  8
0
 10
       -2.990662
 20
        0.000000
 30
        0.000000
 11
       -4.953156
 21
        0.000000
 31
        0.000000
  0
LINE
  8
0
 10
       -2.990662
 20
       -0.299988
 30
        0.000000
 11
       -2.990662
 21
        0.000000
 31
        0.000000
  0
LINE
  8
0
 10
       -3.790649
 20
       -0.299988
 30
        0.000000
 11
       -2.990662
 21
       -0.299988
 31
        0.000000
  0
LINE
  8
0
 10
       -3.790649
 20
       -2.500000
 30
        0.000000
 11
       -3.790649
 21
       -0.299988
 31
        0.000000
  0
LINE
  8
0
 10
       -4.153168
 20
       -2.500000
 30
        0.000000
 11
       -3.790649
 21
       -2.500000
 31
        0.000000
  0
LINE
  8
0
 10
       -4.153168
 20
       -0.299988
 30
        0.000000
 11
       -4.153168
 21
       -2.500000
 31
        0.000000
  0
LINE
  8
0
 10
       -4.953156
 20
       -0.299988
 30
        0.000000
 11
       -4.153168
 21
       -0.299988
 31
        0.000000
  0
LINE
  8
0
 10
       -5.490662
 20
       -1.462524
 30
        0.000000
 11
       -5.879059
 21
       -0.364258
 31
        0.000000
  0
LINE
  8
0
 10
       -6.240662
 20
       -1.462524
 30
        0.000000
 11
       -5.490662
 21
       -1.462524
 31
        0.000000
  0
LINE
  8
0
 10
       -5.879059
 20
       -0.364258
 30
        0.000000
 11
       -6.240662
 21
       -1.462524
 31
        0.000000
  0
LINE
  8
0
 10
       -6.065674
 20
        0.000000
 30
        0.000000
 11
       -6.953156
 21
       -2.500000
 31
        0.000000
  0
LINE
  8
0
 10
       -5.678162
 20
        0.000000
 30
        0.000000
 11
       -6.065674
 21
        0.000000
 31
        0.000000
  0
LINE
  8
0
 10
       -4.728149
 20
       -2.500000
 30
        0.000000
 11
       -5.678162
 21
        0.000000
 31
        0.000000
  0
LINE
  8
0
 10
       -5.128174
 20
       -2.500000
 30
        0.000000
 11
       -4.728149
 21
       -2.500000
 31
        0.000000
  0
LINE
  8
0
 10
       -5.390656
 20
       -1.750000
 30
        0.000000
 11
       -5.128174
 21
       -2.500000
 31
        0.000000
  0
LINE
  8
0
 10
       -6.328156
 20
       -1.750000
 30
        0.000000
 11
       -5.390656
 21
       -1.750000
 31
        0.000000
  0
LINE
  8
0
 10
       -6.578156
 20
       -2.500000
 30
        0.000000
 11
       -6.328156
 21
       -1.750000
 31
        0.000000
  0
LINE
  8
0
 10
       -6.953156
 20
       -2.500000
 30
        0.000000
 11
       -6.578156
 21
       -2.500000
 31
        0.000000
  0
LINE
  8
0
 10
       -8.828156
 20
        0.000000
 30
        0.000000
 11
       -8.828156
 21
       -2.500000
 31
        0.000000
  0
LINE
  8
0
 10
       -8.465668
 20
        0.000000
 30
        0.000000
 11
       -8.828156
 21
        0.000000
 31
        0.000000
  0
LINE
  8
0
 10
       -8.465668
 20
       -2.174988
 30
        0.000000
 11
       -8.465668
 21
        0.000000
 31
        0.000000
  0
LINE
  8
0
 10
       -7.140656
 20
       -2.174988
 30
        0.000000
 11
       -8.465668
 21
       -2.174988
 31
        0.000000
  0
LINE
  8
0
 10
       -7.140656
 20
       -2.500000
 30
        0.000000
 11
       -7.140656
 21
       -2.174988
 31
        0.000000
  0
LINE
  8
0
 10
       -8.828156
 20
       -2.500000
 30
        0.000000
 11
       -7.140656
 21
       -2.500000
 31
        0.000000
  0
LINE
  8
0
 10
      -10.653168
 20
       -0.299988
 30
        0.000000
 11
      -10.653168
 21
       -1.187500
 31
        0.000000
  0
LINE
  8
0
 10
       -9.900299
 20
       -0.299988
 30
        0.000000
 11
      -10.653168
 21
       -0.299988
 31
        0.000000
  0
ARC
  8
0
 10
       -9.900299
 20
       -0.712524
 30
        0.000000
 40
        0.412486
 50
       15.464434
 51
       90.000000
  0
ARC
  8
0
 10
       -9.990662
 20
       -0.737488
 30
        0.000000
 40
        0.506247
 50
      342.080599
 51
      375.467050
  0
ARC
  8
0
 10
       -9.913361
 20
       -0.762512
 30
        0.000000
 40
        0.424988
 50
      270.000000
 51
      342.074999
  0
LINE
  8
0
 10
      -10.653168
 20
       -1.187500
 30
        0.000000
 11
       -9.913361
 21
       -1.187500
 31
        0.000000
  0
LINE
  8
0
 10
      -11.015656
 20
        0.000000
 30
        0.000000
 11
      -11.015656
 21
       -2.500000
 31
        0.000000
  0
LINE
  8
0
 10
       -9.856323
 20
        0.000000
 30
        0.000000
 11
      -11.015656
 21
        0.000000
 31
        0.000000
  0
ARC
  8
0
 10
       -9.856323
 20
       -0.712524
 30
        0.000000
 40
        0.712499
 50
       14.475506
 51
       90.000000
  0
ARC
  8
0
 10
       -9.953156
 20
       -0.737488
 30
        0.000000
 40
        0.812513
 50
      345.522714
 51
      374.477284
  0
ARC
  8
0
 10
       -9.856323
 20
       -0.762512
 30
        0.000000
 40
        0.712524
 50
      270.000000
 51
      345.525419
  0
LINE
  8
0
 10
      -10.653168
 20
       -1.474976
 30
        0.000000
 11
       -9.856323
 21
       -1.474976
 31
        0.000000
  0
LINE
  8
0
 10
      -10.653168
 20
       -2.500000
 30
        0.000000
 11
      -10.653168
 21
       -1.474976
 31
        0.000000
  0
LINE
  8
0
 10
      -11.015656
 20
       -2.500000
 30
        0.000000
 11
      -10.653168
 21
       -2.500000
 31
        0.000000
  0
LINE
  8
0
 10
      -14.528168
 20
       -0.299988
 30
        0.000000
 11
      -14.528168
 21
       -2.200012
 31
        0.000000
  0
LINE
  8
0
 10
      -13.928162
 20
       -0.299988
 30
        0.000000
 11
      -14.528168
 21
       -0.299988
 31
        0.000000
  0
ARC
  8
0
 10
      -13.928162
 20
       -1.049988
 30
        0.000000
 40
        0.749973
 50
       60.656215
 51
       90.000000
  0
ARC
  8
0
 10
      -13.848541
 20
       -0.908325
 30
        0.000000
 40
        0.587492
 50
       19.228383
 51
       60.657581
  0
ARC
  8
0
 10
      -14.828156
 20
       -1.250000
 30
        0.000000
 40
        1.624991
 50
      341.769554
 51
      379.225760
  0
ARC
  8
0
 10
      -13.830872
 20
       -1.578491
 30
        0.000000
 40
        0.574990
 50
      321.114133
 51
      341.770018
  0
ARC
  8
0
 10
      -13.928162
 20
       -1.500000
 30
        0.000000
 40
        0.700012
 50
      270.000000
 51
      321.114434
  0
LINE
  8
0
 10
      -14.528168
 20
       -2.200012
 30
        0.000000
 11
      -13.928162
 21
       -2.200012
 31
        0.000000
  0
LINE
  8
0
 10
      -14.890656
 20
        0.000000
 30
        0.000000
 11
      -14.890656
 21
       -2.500000
 31
        0.000000
  0
LINE
  8
0
 10
      -13.915649
 20
        0.000000
 30
        0.000000
 11
      -14.890656
 21
        0.000000
 31
        0.000000
  0
ARC
  8
0
 10
      -13.915649
 20
       -1.087524
 30
        0.000000
 40
        1.087514
 50
       49.809053
 51
       90.000000
  0
ARC
  8
0
 10
      -13.834991
 20
       -0.992004
 30
        0.000000
 40
        0.962496
 50
       14.776480
 51
       49.807424
  0
ARC
  8
0
 10
      -14.765656
 20
       -1.237488
 30
        0.000000
 40
        1.925008
 50
      344.634790
 51
      374.776392
  0
ARC
  8
0
 10
      -13.873718
 20
       -1.482605
 30
        0.000000
 40
        1.000012
 50
      299.129177
 51
      344.632768
  0
ARC
  8
0
 10
      -13.940674
 20
       -1.362488
 30
        0.000000
 40
        1.137512
 50
      270.000000
 51
      299.131390
  0
LINE
  8
0
 10
      -14.890656
 20
       -2.500000
 30
        0.000000
 11
      -13.940674
 21
       -2.500000
 31
        0.000000
  0
LINE
  8
0
 10
      -15.828156
 20
        0.000000
 30
        0.000000
 11
      -15.828156
 21
       -2.500000
 31
        0.000000
  0
LINE
  8
0
 10
      -15.465668
 20
        0.000000
 30
        0.000000
 11
      -15.828156
 21
        0.000000
 31
        0.000000
  0
LINE
  8
0
 10
      -15.465668
 20
       -2.500000
 30
        0.000000
 11
      -15.465668
 21
        0.000000
 31
        0.000000
  0
LINE
  8
0
 10
      -15.828156
 20
       -2.500000
 30
        0.000000
 11
      -15.465668
 21
       -2.500000
 31
        0.000000
  0
ARC
  8
0
 10
       -0.000977
 20
       -9.694824
 30
        0.000000
 40
        2.275839
 50
       67.379778
 51
       90.000000
  0
ARC
  8
0
 10
        0.412842
 20
       -8.701721
 30
        0.000000
 40
        1.199979
 50
      292.620771
 51
      427.379232
  0
ARC
  8
0
 10
       -0.000977
 20
       -7.708618
 30
        0.000000
 40
        2.275879
 50
      270.000000
 51
      292.620225
  0
ARC
  8
0
 10
       -0.000977
 20
       -7.708618
 30
        0.000000
 40
        2.275839
 50
      247.379786
 51
      270.000000
  0
ARC
  8
0
 10
       -0.414764
 20
       -8.701721
 30
        0.000000
 40
        1.199979
 50
      112.620756
 51
      247.380060
  0
ARC
  8
0
 10
       -0.000977
 20
       -9.694824
 30
        0.000000
 40
        2.275879
 50
       90.000000
 51
      112.620210
  0
ARC
  8
0
 10
       -0.000977
 20
      -13.377562
 30
        0.000000
 40
        2.565499
 50
       62.447344
 51
       90.000000
  0
ARC
  8
0
 10
        0.495575
 20
      -12.425840
 30
        0.000000
 40
        1.492044
 50
      297.553534
 51
      422.447787
  0
ARC
  8
0
 10
       -0.000977
 20
      -11.474119
 30
        0.000000
 40
        2.565491
 50
      270.000000
 51
      297.553151
  0
ARC
  8
0
 10
       -0.000977
 20
      -11.474119
 30
        0.000000
 40
        2.565499
 50
      242.447352
 51
      270.000000
  0
ARC
  8
0
 10
       -0.497528
 20
      -12.425840
 30
        0.000000
 40
        1.492044
 50
      117.553533
 51
      242.447789
  0
ARC
  8
0
 10
       -0.000977
 20
      -13.377562
 30
        0.000000
 40
        2.565491
 50
       90.000000
 51
      117.552754
  0
ARC
  8
0
 10
       -0.000977
 20
      -10.191404
 30
        0.000000
 40
        3.641402
 50
       62.241748
 51
       90.000000
  0
ARC
  8
0
 10
        0.826630
 20
       -8.618958
 30
        0.000000
 40
        1.864487
 50
      292.072061
 51
      422.241468
  0
ARC
  8
0
 10
        0.950775
 20
      -12.343077
 30
        0.000000
 40
        2.077897
 50
       30.964476
 51
       73.892070
  0
ARC
  8
0
 10
        0.743866
 20
      -12.467222
 30
        0.000000
 40
        2.319169
 50
      294.775040
 51
      390.963291
  0
ARC
  8
0
 10
       -0.000977
 20
      -10.853453
 30
        0.000000
 40
        4.096558
 50
      270.000000
 51
      294.775532
  0
ARC
  8
0
 10
       -0.000977
 20
      -10.853453
 30
        0.000000
 40
        4.096538
 50
      245.224616
 51
      270.000000
  0
ARC
  8
0
 10
       -0.745789
 20
      -12.467222
 30
        0.000000
 40
        2.319161
 50
      149.036878
 51
      245.224889
  0
ARC
  8
0
 10
       -0.952698
 20
      -12.343077
 30
        0.000000
 40
        2.077914
 50
      106.107789
 51
      149.035662
  0
ARC
  8
0
 10
       -0.828552
 20
       -8.618958
 30
        0.000000
 40
        1.864473
 50
      117.758752
 51
      247.927786
  0
ARC
  8
0
 10
       -0.000977
 20
      -10.191404
 30
        0.000000
 40
        3.641357
 50
       90.000000
 51
      117.758343
  0
LINE
  8
0
 10
       23.205566
 20
        6.500000
 30
        0.000000
 11
       23.205566
 21
        3.000000
 31
        0.000000
  0
LINE
  8
0
 10
       23.818054
 20
        6.500000
 30
        0.000000
 11
       23.205566
 21
        6.500000
 31
        0.000000
  0
LINE
  8
0
 10
       24.902466
 20
        3.620728
 30
        0.000000
 11
       23.818054
 21
        6.500000
 31
        0.000000
  0
LINE
  8
0
 10
       26.005554
 20
        6.500000
 30
        0.000000
 11
       24.902466
 21
        3.620728
 31
        0.000000
  0
LINE
  8
0
 10
       26.618042
 20
        6.500000
 30
        0.000000
 11
       26.005554
 21
        6.500000
 31
        0.000000
  0
LINE
  8
0
 10
       26.618042
 20
        3.000000
 30
        0.000000
 11
       26.618042
 21
        6.500000
 31
        0.000000
  0
LINE
  8
0
 10
       26.163025
 20
        3.000000
 30
        0.000000
 11
       26.618042
 21
        3.000000
 31
        0.000000
  0
LINE
  8
0
 10
       26.163025
 20
        5.687164
 30
        0.000000
 11
       26.163025
 21
        3.000000
 31
        0.000000
  0
LINE
  8
0
 10
       25.095520
 20
        3.000000
 30
        0.000000
 11
       26.163025
 21
        5.687164
 31
        0.000000
  0
LINE
  8
0
 10
       24.710571
 20
        3.000000
 30
        0.000000
 11
       25.095520
 21
        3.000000
 31
        0.000000
  0
LINE
  8
0
 10
       23.660522
 20
        5.689484
 30
        0.000000
 11
       24.710571
 21
        3.000000
 31
        0.000000
  0
LINE
  8
0
 10
       23.660522
 20
        3.000000
 30
        0.000000
 11
       23.660522
 21
        5.689484
 31
        0.000000
  0
LINE
  8
0
 10
       23.205566
 20
        3.000000
 30
        0.000000
 11
       23.660522
 21
        3.000000
 31
        0.000000
  0
LINE
  8
0
 10
       19.880554
 20
        6.500000
 30
        0.000000
 11
       19.880554
 21
        3.000000
 31
        0.000000
  0
LINE
  8
0
 10
       22.470520
 20
        6.500000
 30
        0.000000
 11
       19.880554
 21
        6.500000
 31
        0.000000
  0
LINE
  8
0
 10
       22.470520
 20
        6.062500
 30
        0.000000
 11
       22.470520
 21
        6.500000
 31
        0.000000
  0
LINE
  8
0
 10
       20.388062
 20
        6.062500
 30
        0.000000
 11
       22.470520
 21
        6.062500
 31
        0.000000
  0
LINE
  8
0
 10
       20.388062
 20
        5.029999
 30
        0.000000
 11
       20.388062
 21
        6.062500
 31
        0.000000
  0
LINE
  8
0
 10
       22.295532
 20
        5.029999
 30
        0.000000
 11
       20.388062
 21
        5.029999
 31
        0.000000
  0
LINE
  8
0
 10
       22.295532
 20
        4.609985
 30
        0.000000
 11
       22.295532
 21
        5.029999
 31
        0.000000
  0
LINE
  8
0
 10
       20.388062
 20
        4.609985
 30
        0.000000
 11
       22.295532
 21
        4.609985
 31
        0.000000
  0
LINE
  8
0
 10
       20.388062
 20
        3.454987
 30
        0.000000
 11
       20.388062
 21
        4.609985
 31
        0.000000
  0
LINE
  8
0
 10
       22.523071
 20
        3.454987
 30
        0.000000
 11
       20.388062
 21
        3.454987
 31
        0.000000
  0
LINE
  8
0
 10
       22.523071
 20
        3.000000
 30
        0.000000
 11
       22.523071
 21
        3.454987
 31
        0.000000
  0
LINE
  8
0
 10
       19.880554
 20
        3.000000
 30
        0.000000
 11
       22.523071
 21
        3.000000
 31
        0.000000
  0
LINE
  8
0
 10
       16.678040
 20
        6.500000
 30
        0.000000
 11
       16.678040
 21
        6.079987
 31
        0.000000
  0
LINE
  8
0
 10
       19.425537
 20
        6.500000
 30
        0.000000
 11
       16.678040
 21
        6.500000
 31
        0.000000
  0
LINE
  8
0
 10
       19.425537
 20
        6.079987
 30
        0.000000
 11
       19.425537
 21
        6.500000
 31
        0.000000
  0
LINE
  8
0
 10
       18.305542
 20
        6.079987
 30
        0.000000
 11
       19.425537
 21
        6.079987
 31
        0.000000
  0
LINE
  8
0
 10
       18.305542
 20
        3.000000
 30
        0.000000
 11
       18.305542
 21
        6.079987
 31
        0.000000
  0
LINE
  8
0
 10
       17.798035
 20
        3.000000
 30
        0.000000
 11
       18.305542
 21
        3.000000
 31
        0.000000
  0
LINE
  8
0
 10
       17.798035
 20
        6.079987
 30
        0.000000
 11
       17.798035
 21
        3.000000
 31
        0.000000
  0
LINE
  8
0
 10
       16.678040
 20
        6.079987
 30
        0.000000
 11
       17.798035
 21
        6.079987
 31
        0.000000
  0
LINE
  8
0
 10
       14.212524
 20
        4.224670
 30
        0.000000
 11
       13.732910
 21
        4.207550
 31
        0.000000
  0
ARC
  8
0
 10
       15.114380
 20
        4.225006
 30
        0.000000
 40
        0.901856
 50
      180.021380
 51
      254.357999
  0
ARC
  8
0
 10
       15.236877
 20
        4.662506
 30
        0.000000
 40
        1.356166
 50
      254.357835
 51
      286.858988
  0
ARC
  8
0
 10
       15.411865
 20
        4.084991
 30
        0.000000
 40
        0.752754
 50
      286.859890
 51
      327.531041
  0
ARC
  8
0
 10
       15.604370
 20
        3.962494
 30
        0.000000
 40
        0.524569
 50
      327.530358
 51
      423.431915
  0
ARC
  8
0
 10
       14.956848
 20
        2.667511
 30
        0.000000
 40
        1.972418
 50
       63.435344
 51
       77.660640
  0
LINE
  8
0
 10
       14.732361
 20
        4.735657
 30
        0.000000
 11
       15.378357
 21
        4.594360
 31
        0.000000
  0
ARC
  8
0
 10
       15.184875
 20
        6.804260
 30
        0.000000
 40
        2.117523
 50
      248.879750
 51
      257.660751
  0
ARC
  8
0
 10
       14.729370
 20
        5.625000
 30
        0.000000
 40
        0.853353
 50
      142.431771
 51
      248.879095
  0
ARC
  8
0
 10
       14.843079
 20
        5.537506
 30
        0.000000
 40
        0.996843
 50
      108.591362
 51
      142.430774
  0
ARC
  8
0
 10
       15.166870
 20
        4.575012
 30
        0.000000
 40
        2.012315
 50
       78.689895
 51
      108.590802
  0
ARC
  8
0
 10
       15.341858
 20
        5.450012
 30
        0.000000
 40
        1.119995
 50
        0.000000
 51
       78.689205
  0
LINE
  8
0
 10
       16.012329
 20
        5.450012
 30
        0.000000
 11
       16.461853
 21
        5.450012
 31
        0.000000
  0
ARC
  8
0
 10
       15.236877
 20
        5.415009
 30
        0.000000
 40
        0.776302
 50
        2.584357
 51
       78.930632
  0
ARC
  8
0
 10
       15.158081
 20
        5.012512
 30
        0.000000
 40
        1.186439
 50
       78.931117
 51
      110.282086
  0
ARC
  8
0
 10
       15.009338
 20
        5.415009
 30
        0.000000
 40
        0.757311
 50
      110.281751
 51
      128.158397
  0
ARC
  8
0
 10
       14.816833
 20
        5.660004
 30
        0.000000
 40
        0.445742
 50
      128.157441
 51
      245.323353
  0
ARC
  8
0
 10
       15.412354
 20
        6.956543
 30
        0.000000
 40
        1.872503
 50
      245.328325
 51
      258.304455
  0
LINE
  8
0
 10
       15.531311
 20
        5.019775
 30
        0.000000
 11
       15.032776
 21
        5.122894
 31
        0.000000
  0
ARC
  8
0
 10
       14.985291
 20
        2.380646
 30
        0.000000
 40
        2.695005
 50
       66.619858
 51
       78.310683
  0
ARC
  8
0
 10
       15.691833
 20
        4.015015
 30
        0.000000
 40
        0.914488
 50
       11.310307
 51
       66.618567
  0
ARC
  8
0
 10
       15.604370
 20
        3.997498
 30
        0.000000
 40
        1.003723
 50
      323.130104
 51
      371.309634
  0
ARC
  8
0
 10
       15.534363
 20
        4.049988
 30
        0.000000
 40
        1.091185
 50
      289.572130
 51
      323.130760
  0
ARC
  8
0
 10
       15.254333
 20
        4.837494
 30
        0.000000
 40
        1.926982
 50
      250.017687
 51
      289.573496
  0
ARC
  8
0
 10
       15.044373
 20
        4.260010
 30
        0.000000
 40
        1.312511
 50
      182.290683
 51
      250.016649
  0
LINE
  8
0
 10
       11.089355
 20
        6.500000
 30
        0.000000
 11
       10.494354
 21
        6.500000
 31
        0.000000
  0
LINE
  8
0
 10
       12.077515
 20
        4.859253
 30
        0.000000
 11
       11.089355
 21
        6.500000
 31
        0.000000
  0
LINE
  8
0
 10
       13.084351
 20
        6.500000
 30
        0.000000
 11
       12.077515
 21
        4.859253
 31
        0.000000
  0
LINE
  8
0
 10
       13.661865
 20
        6.500000
 30
        0.000000
 11
       13.084351
 21
        6.500000
 31
        0.000000
  0
LINE
  8
0
 10
       12.331848
 20
        4.470001
 30
        0.000000
 11
       13.661865
 21
        6.500000
 31
        0.000000
  0
LINE
  8
0
 10
       12.331848
 20
        3.000000
 30
        0.000000
 11
       12.331848
 21
        4.470001
 31
        0.000000
  0
LINE
  8
0
 10
       11.824341
 20
        3.000000
 30
        0.000000
 11
       12.331848
 21
        3.000000
 31
        0.000000
  0
LINE
  8
0
 10
       11.824341
 20
        4.470001
 30
        0.000000
 11
       11.824341
 21
        3.000000
 31
        0.000000
  0
LINE
  8
0
 10
       10.494354
 20
        6.500000
 30
        0.000000
 11
       11.824341
 21
        4.470001
 31
        0.000000
  0
LINE
  8
0
 10
        8.028809
 20
        4.224670
 30
        0.000000
 11
        7.549194
 21
        4.207550
 31
        0.000000
  0
ARC
  8
0
 10
        8.930664
 20
        4.225006
 30
        0.000000
 40
        0.901856
 50
      180.021380
 51
      254.357999
  0
ARC
  8
0
 10
        9.053162
 20
        4.662506
 30
        0.000000
 40
        1.356166
 50
      254.357835
 51
      286.858988
  0
ARC
  8
0
 10
        9.228149
 20
        4.084991
 30
        0.000000
 40
        0.752745
 50
      286.857677
 51
      327.530112
  0
ARC
  8
0
 10
        9.420654
 20
        3.962494
 30
        0.000000
 40
        0.524569
 50
      327.530358
 51
      423.435645
  0
ARC
  8
0
 10
        8.773163
 20
        2.667511
 30
        0.000000
 40
        1.972418
 50
       63.435344
 51
       77.660640
  0
LINE
  8
0
 10
        8.548645
 20
        4.735657
 30
        0.000000
 11
        9.194641
 21
        4.594360
 31
        0.000000
  0
ARC
  8
0
 10
        9.001160
 20
        6.804260
 30
        0.000000
 40
        2.117512
 50
      248.880515
 51
      257.660696
  0
ARC
  8
0
 10
        8.545654
 20
        5.625000
 30
        0.000000
 40
        0.853329
 50
      142.430528
 51
      248.880679
  0
ARC
  8
0
 10
        8.659393
 20
        5.537506
 30
        0.000000
 40
        0.996843
 50
      108.591362
 51
      142.432181
  0
ARC
  8
0
 10
        8.983154
 20
        4.575012
 30
        0.000000
 40
        2.012315
 50
       78.689895
 51
      108.590802
  0
ARC
  8
0
 10
        9.158142
 20
        5.450012
 30
        0.000000
 40
        1.119995
 50
        0.000000
 51
       78.690803
  0
LINE
  8
0
 10
        9.828674
 20
        5.450012
 30
        0.000000
 11
       10.278137
 21
        5.450012
 31
        0.000000
  0
ARC
  8
0
 10
        9.053162
 20
        5.415009
 30
        0.000000
 40
        0.776302
 50
        2.584357
 51
       78.930632
  0
ARC
  8
0
 10
        8.974396
 20
        5.012512
 30
        0.000000
 40
        1.186445
 50
       78.929669
 51
      110.282769
  0
ARC
  8
0
 10
        8.825653
 20
        5.415009
 30
        0.000000
 40
        0.757311
 50
      110.281751
 51
      128.158384
  0
ARC
  8
0
 10
        8.633148
 20
        5.660004
 30
        0.000000
 40
        0.445742
 50
      128.157441
 51
      245.323353
  0
ARC
  8
0
 10
        9.228638
 20
        6.956543
 30
        0.000000
 40
        1.872503
 50
      245.328325
 51
      258.305411
  0
LINE
  8
0
 10
        9.347595
 20
        5.019775
 30
        0.000000
 11
        8.849091
 21
        5.122894
 31
        0.000000
  0
ARC
  8
0
 10
        8.801575
 20
        2.380646
 30
        0.000000
 40
        2.695005
 50
       66.619858
 51
       78.310683
  0
ARC
  8
0
 10
        9.508148
 20
        4.015015
 30
        0.000000
 40
        0.914459
 50
       11.310682
 51
       66.619851
  0
ARC
  8
0
 10
        9.420654
 20
        3.997498
 30
        0.000000
 40
        1.003699
 50
      323.129066
 51
      371.309681
  0
ARC
  8
0
 10
        9.350647
 20
        4.049988
 30
        0.000000
 40
        1.091195
 50
      289.573633
 51
      323.130023
  0
ARC
  8
0
 10
        9.070648
 20
        4.837494
 30
        0.000000
 40
        1.926993
 50
      250.016840
 51
      289.573387
  0
ARC
  8
0
 10
        8.860657
 20
        4.260010
 30
        0.000000
 40
        1.312511
 50
      182.290683
 51
      250.016649
  0
LINE
  8
0
 10
        2.735657
 20
        6.079987
 30
        0.000000
 11
        2.735657
 21
        3.420013
 31
        0.000000
  0
LINE
  8
0
 10
        3.575653
 20
        6.079987
 30
        0.000000
 11
        2.735657
 21
        6.079987
 31
        0.000000
  0
ARC
  8
0
 10
        3.575653
 20
        5.029999
 30
        0.000000
 40
        1.050006
 50
       60.656031
 51
       90.000000
  0
ARC
  8
0
 10
        3.687134
 20
        5.228302
 30
        0.000000
 40
        0.822485
 50
       19.226236
 51
       60.655956
  0
ARC
  8
0
 10
        2.315643
 20
        4.750000
 30
        0.000000
 40
        2.275014
 50
      341.769991
 51
      379.226913
  0
ARC
  8
0
 10
        3.711884
 20
        4.290131
 30
        0.000000
 40
        0.805015
 50
      321.113614
 51
      341.769226
  0
ARC
  8
0
 10
        3.575653
 20
        4.399994
 30
        0.000000
 40
        0.980011
 50
      270.000000
 51
      321.113669
  0
LINE
  8
0
 10
        2.735657
 20
        3.420013
 30
        0.000000
 11
        3.575653
 21
        3.420013
 31
        0.000000
  0
LINE
  8
0
 10
        2.228149
 20
        6.500000
 30
        0.000000
 11
        2.228149
 21
        3.000000
 31
        0.000000
  0
LINE
  8
0
 10
        3.593140
 20
        6.500000
 30
        0.000000
 11
        2.228149
 21
        6.500000
 31
        0.000000
  0
ARC
  8
0
 10
        3.593140
 20
        4.977509
 30
        0.000000
 40
        1.522504
 50
       49.808285
 51
       90.000000
  0
ARC
  8
0
 10
        3.706085
 20
        5.111176
 30
        0.000000
 40
        1.347515
 50
       14.776784
 51
       49.809200
  0
ARC
  8
0
 10
        2.403137
 20
        4.767487
 30
        0.000000
 40
        2.694997
 50
      344.634434
 51
      374.776880
  0
ARC
  8
0
 10
        3.651855
 20
        4.424347
 30
        0.000000
 40
        1.400010
 50
      299.130187
 51
      344.634025
  0
ARC
  8
0
 10
        3.558167
 20
        4.592499
 30
        0.000000
 40
        1.592499
 50
      270.000000
 51
      299.129614
  0
LINE
  8
0
 10
        2.228149
 20
        3.000000
 30
        0.000000
 11
        3.558167
 21
        3.000000
 31
        0.000000
  0
LINE
  8
0
 10
        0.915649
 20
        6.500000
 30
        0.000000
 11
        0.915649
 21
        3.000000
 31
        0.000000
  0
LINE
  8
0
 10
        1.423157
 20
        6.500000
 30
        0.000000
 11
        0.915649
 21
        6.500000
 31
        0.000000
  0
LINE
  8
0
 10
        1.423157
 20
        3.000000
 30
        0.000000
 11
        1.423157
 21
        6.500000
 31
        0.000000
  0
LINE
  8
0
 10
        0.915649
 20
        3.000000
 30
        0.000000
 11
        1.423157
 21
        3.000000
 31
        0.000000
  0
LINE
  8
0
 10
       -4.404358
 20
        6.500000
 30
        0.000000
 11
       -4.404358
 21
        3.000000
 31
        0.000000
  0
LINE
  8
0
 10
       -1.814362
 20
        6.500000
 30
        0.000000
 11
       -4.404358
 21
        6.500000
 31
        0.000000
  0
LINE
  8
0
 10
       -1.814362
 20
        6.062500
 30
        0.000000
 11
       -1.814362
 21
        6.500000
 31
        0.000000
  0
LINE
  8
0
 10
       -3.896851
 20
        6.062500
 30
        0.000000
 11
       -1.814362
 21
        6.062500
 31
        0.000000
  0
LINE
  8
0
 10
       -3.896851
 20
        5.029999
 30
        0.000000
 11
       -3.896851
 21
        6.062500
 31
        0.000000
  0
LINE
  8
0
 10
       -1.989349
 20
        5.029999
 30
        0.000000
 11
       -3.896851
 21
        5.029999
 31
        0.000000
  0
LINE
  8
0
 10
       -1.989349
 20
        4.609985
 30
        0.000000
 11
       -1.989349
 21
        5.029999
 31
        0.000000
  0
LINE
  8
0
 10
       -3.896851
 20
        4.609985
 30
        0.000000
 11
       -1.989349
 21
        4.609985
 31
        0.000000
  0
LINE
  8
0
 10
       -3.896851
 20
        3.454987
 30
        0.000000
 11
       -3.896851
 21
        4.609985
 31
        0.000000
  0
LINE
  8
0
 10
       -1.761841
 20
        3.454987
 30
        0.000000
 11
       -3.896851
 21
        3.454987
 31
        0.000000
  0
LINE
  8
0
 10
       -1.761841
 20
        3.000000
 30
        0.000000
 11
       -1.761841
 21
        3.454987
 31
        0.000000
  0
LINE
  8
0
 10
       -4.404358
 20
        3.000000
 30
        0.000000
 11
       -1.761841
 21
        3.000000
 31
        0.000000
  0
LINE
  8
0
 10
       -7.606842
 20
        6.500000
 30
        0.000000
 11
       -7.606842
 21
        6.079987
 31
        0.000000
  0
LINE
  8
0
 10
       -4.859344
 20
        6.500000
 30
        0.000000
 11
       -7.606842
 21
        6.500000
 31
        0.000000
  0
LINE
  8
0
 10
       -4.859344
 20
        6.079987
 30
        0.000000
 11
       -4.859344
 21
        6.500000
 31
        0.000000
  0
LINE
  8
0
 10
       -5.979340
 20
        6.079987
 30
        0.000000
 11
       -4.859344
 21
        6.079987
 31
        0.000000
  0
LINE
  8
0
 10
       -5.979340
 20
        3.000000
 30
        0.000000
 11
       -5.979340
 21
        6.079987
 31
        0.000000
  0
LINE
  8
0
 10
       -6.486847
 20
        3.000000
 30
        0.000000
 11
       -5.979340
 21
        3.000000
 31
        0.000000
  0
LINE
  8
0
 10
       -6.486847
 20
        6.079987
 30
        0.000000
 11
       -6.486847
 21
        3.000000
 31
        0.000000
  0
LINE
  8
0
 10
       -7.606842
 20
        6.079987
 30
        0.000000
 11
       -6.486847
 21
        6.079987
 31
        0.000000
  0
LINE
  8
0
 10
       -8.569336
 20
        6.500000
 30
        0.000000
 11
       -8.569336
 21
        3.000000
 31
        0.000000
  0
LINE
  8
0
 10
       -8.061859
 20
        6.500000
 30
        0.000000
 11
       -8.569336
 21
        6.500000
 31
        0.000000
  0
LINE
  8
0
 10
       -8.061859
 20
        3.000000
 30
        0.000000
 11
       -8.061859
 21
        6.500000
 31
        0.000000
  0
LINE
  8
0
 10
       -8.569336
 20
        3.000000
 30
        0.000000
 11
       -8.061859
 21
        3.000000
 31
        0.000000
  0
LINE
  8
0
 10
      -11.351837
 20
        6.500000
 30
        0.000000
 11
      -11.351837
 21
        3.000000
 31
        0.000000
  0
LINE
  8
0
 10
      -10.844360
 20
        6.500000
 30
        0.000000
 11
      -11.351837
 21
        6.500000
 31
        0.000000
  0
LINE
  8
0
 10
      -10.844360
 20
        3.454987
 30
        0.000000
 11
      -10.844360
 21
        6.500000
 31
        0.000000
  0
LINE
  8
0
 10
       -8.989349
 20
        3.454987
 30
        0.000000
 11
      -10.844360
 21
        3.454987
 31
        0.000000
  0
LINE
  8
0
 10
       -8.989349
 20
        3.000000
 30
        0.000000
 11
       -8.989349
 21
        3.454987
 31
        0.000000
  0
LINE
  8
0
 10
      -11.351837
 20
        3.000000
 30
        0.000000
 11
       -8.989349
 21
        3.000000
 31
        0.000000
  0
LINE
  8
0
 10
      -14.134338
 20
        6.500000
 30
        0.000000
 11
      -14.134338
 21
        3.000000
 31
        0.000000
  0
LINE
  8
0
 10
      -13.626862
 20
        6.500000
 30
        0.000000
 11
      -14.134338
 21
        6.500000
 31
        0.000000
  0
LINE
  8
0
 10
      -13.626862
 20
        3.454987
 30
        0.000000
 11
      -13.626862
 21
        6.500000
 31
        0.000000
  0
LINE
  8
0
 10
      -11.771851
 20
        3.454987
 30
        0.000000
 11
      -13.626862
 21
        3.454987
 31
        0.000000
  0
LINE
  8
0
 10
      -11.771851
 20
        3.000000
 30
        0.000000
 11
      -11.771851
 21
        3.454987
 31
        0.000000
  0
LINE
  8
0
 10
      -14.134338
 20
        3.000000
 30
        0.000000
 11
      -11.771851
 21
        3.000000
 31
        0.000000
  0
LINE
  8
0
 10
      -17.459351
 20
        6.500000
 30
        0.000000
 11
      -17.459351
 21
        3.000000
 31
        0.000000
  0
LINE
  8
0
 10
      -14.869354
 20
        6.500000
 30
        0.000000
 11
      -17.459351
 21
        6.500000
 31
        0.000000
  0
LINE
  8
0
 10
      -14.869354
 20
        6.062500
 30
        0.000000
 11
      -14.869354
 21
        6.500000
 31
        0.000000
  0
LINE
  8
0
 10
      -16.951843
 20
        6.062500
 30
        0.000000
 11
      -14.869354
 21
        6.062500
 31
        0.000000
  0
LINE
  8
0
 10
      -16.951843
 20
        5.029999
 30
        0.000000
 11
      -16.951843
 21
        6.062500
 31
        0.000000
  0
LINE
  8
0
 10
      -15.044342
 20
        5.029999
 30
        0.000000
 11
      -16.951843
 21
        5.029999
 31
        0.000000
  0
LINE
  8
0
 10
      -15.044342
 20
        4.609985
 30
        0.000000
 11
      -15.044342
 21
        5.029999
 31
        0.000000
  0
LINE
  8
0
 10
      -16.951843
 20
        4.609985
 30
        0.000000
 11
      -15.044342
 21
        4.609985
 31
        0.000000
  0
LINE
  8
0
 10
      -16.951843
 20
        3.454987
 30
        0.000000
 11
      -16.951843
 21
        4.609985
 31
        0.000000
  0
LINE
  8
0
 10
      -14.816864
 20
        3.454987
 30
        0.000000
 11
      -16.951843
 21
        3.454987
 31
        0.000000
  0
LINE
  8
0
 10
      -14.816864
 20
        3.000000
 30
        0.000000
 11
      -14.816864
 21
        3.454987
 31
        0.000000
  0
LINE
  8
0
 10
      -17.459351
 20
        3.000000
 30
        0.000000
 11
      -14.816864
 21
        3.000000
 31
        0.000000
  0
LINE
  8
0
 10
      -20.661865
 20
        6.500000
 30
        0.000000
 11
      -20.661865
 21
        6.079987
 31
        0.000000
  0
LINE
  8
0
 10
      -17.914337
 20
        6.500000
 30
        0.000000
 11
      -20.661865
 21
        6.500000
 31
        0.000000
  0
LINE
  8
0
 10
      -17.914337
 20
        6.079987
 30
        0.000000
 11
      -17.914337
 21
        6.500000
 31
        0.000000
  0
LINE
  8
0
 10
      -19.034363
 20
        6.079987
 30
        0.000000
 11
      -17.914337
 21
        6.079987
 31
        0.000000
  0
LINE
  8
0
 10
      -19.034363
 20
        3.000000
 30
        0.000000
 11
      -19.034363
 21
        6.079987
 31
        0.000000
  0
LINE
  8
0
 10
      -19.541840
 20
        3.000000
 30
        0.000000
 11
      -19.034363
 21
        3.000000
 31
        0.000000
  0
LINE
  8
0
 10
      -19.541840
 20
        6.079987
 30
        0.000000
 11
      -19.541840
 21
        3.000000
 31
        0.000000
  0
LINE
  8
0
 10
      -20.661865
 20
        6.079987
 30
        0.000000
 11
      -19.541840
 21
        6.079987
 31
        0.000000
  0
LINE
  8
0
 10
      -21.414337
 20
        4.452515
 30
        0.000000
 11
      -21.958099
 21
        5.989990
 31
        0.000000
  0
LINE
  8
0
 10
      -22.464355
 20
        4.452515
 30
        0.000000
 11
      -21.414337
 21
        4.452515
 31
        0.000000
  0
LINE
  8
0
 10
      -21.958099
 20
        5.989990
 30
        0.000000
 11
      -22.464355
 21
        4.452515
 31
        0.000000
  0
LINE
  8
0
 10
      -22.219360
 20
        6.500000
 30
        0.000000
 11
      -23.461853
 21
        3.000000
 31
        0.000000
  0
LINE
  8
0
 10
      -21.676849
 20
        6.500000
 30
        0.000000
 11
      -22.219360
 21
        6.500000
 31
        0.000000
  0
LINE
  8
0
 10
      -20.346863
 20
        3.000000
 30
        0.000000
 11
      -21.676849
 21
        6.500000
 31
        0.000000
  0
LINE
  8
0
 10
      -20.906860
 20
        3.000000
 30
        0.000000
 11
      -20.346863
 21
        3.000000
 31
        0.000000
  0
LINE
  8
0
 10
      -21.274353
 20
        4.049988
 30
        0.000000
 11
      -20.906860
 21
        3.000000
 31
        0.000000
  0
LINE
  8
0
 10
      -22.586853
 20
        4.049988
 30
        0.000000
 11
      -21.274353
 21
        4.049988
 31
        0.000000
  0
LINE
  8
0
 10
      -22.936859
 20
        3.000000
 30
        0.000000
 11
      -22.586853
 21
        4.049988
 31
        0.000000
  0
LINE
  8
0
 10
      -23.461853
 20
        3.000000
 30
        0.000000
 11
      -22.936859
 21
        3.000000
 31
        0.000000
  0
LINE
  8
0
 10
      -26.137390
 20
        4.224670
 30
        0.000000
 11
      -26.617004
 21
        4.207550
 31
        0.000000
  0
ARC
  8
0
 10
      -25.235535
 20
        4.225006
 30
        0.000000
 40
        0.901856
 50
      180.021380
 51
      254.357999
  0
ARC
  8
0
 10
      -25.113037
 20
        4.662506
 30
        0.000000
 40
        1.356166
 50
      254.357835
 51
      286.858988
  0
ARC
  8
0
 10
      -24.938049
 20
        4.084991
 30
        0.000000
 40
        0.752745
 50
      286.857677
 51
      327.530112
  0
ARC
  8
0
 10
      -24.745544
 20
        3.962494
 30
        0.000000
 40
        0.524569
 50
      327.530358
 51
      423.435645
  0
ARC
  8
0
 10
      -25.393036
 20
        2.667511
 30
        0.000000
 40
        1.972418
 50
       63.435344
 51
       77.660640
  0
LINE
  8
0
 10
      -25.617554
 20
        4.735657
 30
        0.000000
 11
      -24.971558
 21
        4.594360
 31
        0.000000
  0
ARC
  8
0
 10
      -25.165039
 20
        6.804260
 30
        0.000000
 40
        2.117512
 50
      248.880515
 51
      257.660696
  0
ARC
  8
0
 10
      -25.620544
 20
        5.625000
 30
        0.000000
 40
        0.853329
 50
      142.430528
 51
      248.880679
  0
ARC
  8
0
 10
      -25.506805
 20
        5.537506
 30
        0.000000
 40
        0.996843
 50
      108.591362
 51
      142.432181
  0
ARC
  8
0
 10
      -25.183044
 20
        4.575012
 30
        0.000000
 40
        2.012315
 50
       78.689895
 51
      108.590802
  0
ARC
  8
0
 10
      -25.008057
 20
        5.450012
 30
        0.000000
 40
        1.119995
 50
        0.000000
 51
       78.689205
  0
LINE
  8
0
 10
      -24.337524
 20
        5.450012
 30
        0.000000
 11
      -23.888062
 21
        5.450012
 31
        0.000000
  0
ARC
  8
0
 10
      -25.113037
 20
        5.415009
 30
        0.000000
 40
        0.776302
 50
        2.584357
 51
       78.930632
  0
ARC
  8
0
 10
      -25.191803
 20
        5.012512
 30
        0.000000
 40
        1.186445
 50
       78.929669
 51
      110.282769
  0
ARC
  8
0
 10
      -25.340546
 20
        5.415009
 30
        0.000000
 40
        0.757322
 50
      110.283917
 51
      128.157782
  0
ARC
  8
0
 10
      -25.533051
 20
        5.660004
 30
        0.000000
 40
        0.445742
 50
      128.157441
 51
      245.323353
  0
ARC
  8
0
 10
      -24.937561
 20
        6.956543
 30
        0.000000
 40
        1.872488
 50
      245.329145
 51
      258.305329
  0
LINE
  8
0
 10
      -24.818604
 20
        5.019775
 30
        0.000000
 11
      -25.317108
 21
        5.122894
 31
        0.000000
  0
ARC
  8
0
 10
      -25.364624
 20
        2.380646
 30
        0.000000
 40
        2.695005
 50
       66.619858
 51
       78.310683
  0
ARC
  8
0
 10
      -24.658051
 20
        4.015015
 30
        0.000000
 40
        0.914459
 50
       11.310682
 51
       66.619851
  0
ARC
  8
0
 10
      -24.745544
 20
        3.997498
 30
        0.000000
 40
        1.003699
 50
      323.129066
 51
      371.309681
  0
ARC
  8
0
 10
      -24.815552
 20
        4.049988
 30
        0.000000
 40
        1.091195
 50
      289.573633
 51
      323.130023
  0
ARC
  8
0
 10
      -25.095551
 20
        4.837494
 30
        0.000000
 40
        1.926993
 50
      250.016840
 51
      289.573387
  0
ARC
  8
0
 10
      -25.305542
 20
        4.260010
 30
        0.000000
 40
        1.312511
 50
      182.290683
 51
      250.016649
  0
LINE
  8
0
 10
       45.000000
 20
       78.499985
 30
        0.000000
 11
      -45.000000
 21
       78.499985
 31
        0.000000
  0
LINE
  8
0
 10
       35.500000
 20
       78.999985
 30
        0.000000
 11
       44.500000
 21
       78.999985
 31
        0.000000
  0
LINE
  8
0
 10
       35.500000
 20
       78.999985
 30
        0.000000
 11
       35.500000
 21
       78.499985
 31
        0.000000
  0
LINE
  8
0
 10
       44.500000
 20
       78.999985
 30
        0.000000
 11
       44.500000
 21
       78.499985
 31
        0.000000
  0
LINE
  8
0
 10
       43.886383
 20
       70.999985
 30
        0.000000
 11
       35.000000
 21
       70.999985
 31
        0.000000
  0
LINE
  8
0
 10
       45.000000
 20
       78.499985
 30
        0.000000
 11
       44.886230
 21
       71.982559
 31
        0.000000
  0
ARC
  8
0
 10
       43.886383
 20
       71.999985
 30
        0.000000
 40
        1.000000
 50
      270.000000
 51
      358.999797
  0
LINE
  8
0
 10
       35.000000
 20
       70.999985
 30
        0.000000
 11
       34.473175
 21
       60.947601
 31
        0.000000
  0
LINE
  8
0
 10
       33.474548
 20
       59.999985
 30
        0.000000
 11
      -33.474548
 21
       59.999985
 31
        0.000000
  0
ARC
  8
0
 10
       33.474548
 20
       60.999985
 30
        0.000000
 40
        1.000000
 50
      270.000000
 51
      356.999918
  0
LINE
  8
0
 10
      -35.500000
 20
       78.999985
 30
        0.000000
 11
      -44.500000
 21
       78.999985
 31
        0.000000
  0
LINE
  8
0
 10
      -44.500000
 20
       78.999985
 30
        0.000000
 11
      -44.500000
 21
       78.499985
 31
        0.000000
  0
LINE
  8
0
 10
      -35.000000
 20
       70.999985
 30
        0.000000
 11
      -43.886383
 21
       70.999985
 31
        0.000000
  0
LINE
  8
0
 10
      -45.000000
 20
       78.499985
 30
        0.000000
 11
      -44.886230
 21
       71.982559
 31
        0.000000
  0
ARC
  8
0
 10
      -43.886383
 20
       71.999985
 30
        0.000000
 40
        1.000000
 50
      181.000228
 51
      270.000000
  0
LINE
  8
0
 10
      -35.000000
 20
       70.999985
 30
        0.000000
 11
      -34.473175
 21
       60.947601
 31
        0.000000
  0
ENDSEC
  0
EOF
